Stroke 9 - 100 Girls Chords & Tabs

 

100 Girls Chords & Tabs

Stroke 9 Chords & Tabs

Version: 1 Type: Tab 0 ratings
1 star 2 stars 3 stars 4 stars 5 stars
comments

100 Girls Tab

#----------------------------------PLEASE NOTE---------------------------------#
#This file is the author's own work and represents their interpretation of the #
#song. You may only use this file for private study, scholarship, or research. #
#------------------------------------------------------------------------------#
Stroke 9 - 100 girls

Tabbed by Sam Stumpf

Questions? Email me at sam_05_@hotmail.com


Verse 1:
Guitar1 

E|--------------------------------------------------
B|--------------------------------------------------
G|-----------------------------0-----------0--------
D|---0-4-0---0-7-0-------7---7---------4-4---4h2p4-0
A|-------------------4-4---4-------2-2--------------
E|--------------------------------------------------
[ Tab from: http://www.guitartabs.cc/tabs/s/stroke_9/100_girls_tab.html ]
Guitar2 (sometimes played alone)
           
          p.m. .........................................
E|--------------------------------------------------
B|--------------------------------------------------
G|-7-7-----7-7--------------------------------------
D|-7-7-----7-7-----7-7-----------5-5----------------
A|-5-5-----5-5-----7-7-----------5-5----------------
E|-----------------5-5-----------3-3----------------


Chorus
E|-5-3-2-0------------------------------------
B|---------3-2-0------------------------------
G|---------------2-0--------------------------
D|-------------------4-2-0--------------------
A|-------------------------4-2-0--------------
E|-------------------------------3------------



E|---------------------------------------------
B|---------------------------------------------
G|---7-7-7-7-----------------------------------
D|---7-7-7-7-7-7-5-5---------------------------
A|---5-5-5-5-7-7-5-5---------------------------
E|-----------5-5-3-3---------------------------
Comments