Strip The Image - Out On Me Chords & Tabs

 

Out On Me Chords & Tabs

Strip The Image Chords & Tabs

Version: 1 Type: Tab 0 ratings
1 star 2 stars 3 stars 4 stars 5 stars
comments

Out On Me Tab

   
Homepage - http://www.striptheimage.com
Country - USA
State - Cincinnati, OH
Contact - brian@striptheimage.com


Strip The Image
"Out On Me"
Tabbed by Brian Tolle (guitarist of STI)


Capo 2nd Fret
All chords relative to capo


Intro/Verse
    Em       C                    D                  Em
e---------------------------------------------------------------------------
b---0-----------------0--------------------0--------------------------------
g---0--0-----------0-----0--------------0-----0-----------------------------
d---2----2------2-----------2--------4-----------4-------4/5--4-------------
a------------3--------------------5-------------------------------5---------
E---0------------------------------------------------0----------------------



Pre Chorus
    Em        F#m                   G           A               Em
e---0----------2--------------------3-----------5---------------0-----------
b---0----------2--------------------3-----------5---------------0-----------
g---0----------2--------------------4-----------6---------------0-----------
d---2----------4--------------------5-----------7---------------2-----------
a---2----------4--------------------5-----------7---------------2-----------
E---0----------2--------------------3-----------5---------------0-----------
   "Ain't it strange how you're the one...that always brings me down

    Em        F#m                   G           A     
e---0----------2--------------------3-----------5------x--------------------
b---0----------2--------------------3-----------5------x--------------------
g---0----------2--------------------4-----------6------x--------------------
d---2----------4--------------------5-----------7------x--------------------
a---2----------4--------------------5-----------7------x--------------------
E---0----------2--------------------3-----------5------x--------------------
   "But it's...me who will..........rise in the end

[ Tab from: http://www.guitartabs.cc/tabs/s/strip_the_image/out_on_me_tab.html ]
Chorus
    C       G              D               Em          
e---3-------3--------------2---------------3-----------|--3-2---------------
b---3-------3--------------3---------------3-----------|------3--3/5--3-----
g---0-------0--------------2---------------0-----------|--------------------
d---2-------0--------------0---------------2-----------|--------------------
a---3-------2------------------------------2-----------|--------------------
E-----------3------------------------------0-----------|--------------------
   "This is how I should relate to all the pain I feel..."

    C       G              D
e---3-------3--------------2------------------------------------------------
b---3-------3--------------3------------------------------------------------
g---0-------0--------------2------------------------------------------------
d---2-------0--------------0------------------------------------------------
a---3-------2---------------------------------------------------------------
E-----------3---------------------------------------------------------------
   "if you walk out on......me                                       this is

    C              G          D            Em
e---3--------------3----------2------------3-----------|--3-2---------------
b---3--------------3----------3------------3-----------|------3--3/5--3-----
g---0--------------0----------2------------0-----------|--------------------
d---2--------------0----------0------------2-----------|--------------------
a---3--------------2-----------------------2-----------|--------------------
E------------------3-----------------------0-----------|--------------------
   "how I should relate to misunderstanding love"

    C       G              D
e---3-------3--------------2------------------------------------------------
b---3-------3--------------3------------------------------------------------
g---0-------0--------------2------------------------------------------------
d---2-------0--------------0------------------------------------------------
a---3-------2---------------------------------------------------------------
E-----------3---------------------------------------------------------------
   "if you walk out on.....me........tonight"




Song Layout

Intro - 4x
Verse 1 - 4x
Pre-Chorus
Chorus 
Verse 2 - 6x
Pre-Chorus
Chorus
Solo - 2x(play chorus chords)
Pre Chorus
Chorus 2x

**all rights reserved and copywritten by Strip The Image**
Comments