Strife - Angermeans Chords & Tabs

 

Angermeans Chords & Tabs

Strife Chords & Tabs

Version: 2 Type: Tab 0 ratings
1 star 2 stars 3 stars 4 stars 5 stars
comments

Angermeans Tab

		Strife - Angermeans

Tabbed by John Tulip (kennyg14_jt@hotmail.com)
This tab in no way represents proper time signatures... just listen to the song, its
not hard. For the record, in case you dont know, Strife have 2 guitar players...for
this song anyway.  So the tab will arrange all guitar parts, but will show which guitar as a suggestion should
play which parts.
have fun, this is an awesome tune from an awesome band.  \m/

Drop-D from standard  (low to high) DADGBE

Intro(Riff 1) - Guitar 1
Heavy Dist.
E---------------|
B---------------|
G---------------|    in groups of 2, then a short pause.  x3
D--0-3-1-0-1-1--|
A--0-3-1-0-1-1--|
D--0-3-1-0-1-1--|
PM . . . .

(Intro riff 2)
E---------------|
B---------------|
G---------------| play this the 4th time, and then repeat intro 1x. On repeat intro, Guitar 2 Plays same.
D-1h3-3p1-0-----|
A-1h3-3p1-0-----|
D-1h3-3p1-0-----|

Fill 1 - (can be guitar 2) (0:32)
E---------------|
B---------------|
G----7-let fade-|  Played over the Open D5 at the end of the Intro with mild dist. (switching channels on 
decent
D----X----------|  amp is what i do, but every guitar player is different)
A----5----------|
D---------------|

Verse 1 (0:47) - Guitar 1
Mild Dist.
E---------------------------------------|
B---------------------------------------|
G---------------------------------------| x3
D----7---7-8p7---7---8---8-10p8---8-----|
A--5---5-------5---6---6--------6-------|
D---------------------------------------|
Verse 1 ending fill (1:08) - Guitar 1
E---------------------------------------|
B---------------------------------------|  *Not exactly sure on this part, but it sounds fine when played*
G----------------------10---------------|
D----7---7-8p7---7---8----8-------------|
A--5---5-------5---6--------------------|
D---------------------------------------|

Repeat Intro Riff 1 and 2 1x
[ Tab from: http://www.guitartabs.cc/tabs/s/strife/angermeans_tab_ver_2.html ]
Chorus 1 (1:30) Both Guitars
Heavy Dist.
E-----------------------------------------|
B-----------------------------------------|
G-----------------------------------------|   X3
D---0h3-1-0-1-1--0h3-1-0-1-1-1h3-3p1-0----|
A---0h3-1-0-1-1--0h3-1-0-1-1-1h3-3p1-0----|
D---0h3-1-0-1-1--0h3-1-0-1-1-1h3-3p1-0----|

Repeat Fill 1 1x (1:44)
Repeat Verse 1 Riff for Verse 2 (1:59)
Repeat Intro Riff 1 for Pre-chorus 2 (2:28)
Repeat Intro Riff 2 (2:38)
Repeat Chorus at 2:41 Include Fill 2 over chorus at 2:57

Fill 2 - Guitar 2
E------------|
B------------|
G----8--8----|  X4
D----x--x----|
A----6--6----|
D------------|

Guitar 1 Fade Out Chorus Riff, allow for feedback...at the same time, Guitar 2 begin Verse Riff. (3:11)

Start of Outro - Riff 1 - Both Guitars (3:39)
Heavy Dist.
E----------------------------------------------------------|
B----------------------------------------------------------|
G-----7-7-7-----7-7-7/8\7-7------8-8-8-----8-8-8/10\8-8----|
D--0--x-x-x--0--x-x-x-x-x-x---0--x-x-x--0--x-x-x------x----|   X4
A--0--5-5-5--0--5-5-5/6\5-5---0--6-6-6--0--6-6-6/8\6--6----|
D--0---------0----------------0---------0------------------|


Outro - Riff 2 - *read below* (4:08)
E-------------------------------------------------------------------|
B-------------------------------------------------------------------|
G-------------------------------------------------------------------|   X2
D--777777777777777--888888888888888--777777777777777--8-7-5-7-5-3---|
A--555555555555555--666666666666666--555555555555555--6-5-3-5-3-1---|  *the bass riff carries most of the 
sound
D-------------------------------------------------------------------|   in this riff... the guitar is 
melody*

Fill 3 - Guitar 2 (4:39)
E-------------------------------------------------------------------|
B-------------------------------------------------------------------|
G----------------8-8-8-8\7-7-7---5-5-5---7--------------------------|
D--/12~~~~~------x-x-x-x\x-x-x---x-x-x---x--------------------------|
A----------------6-6-6-6\5-5-5---3-3-3---5--------------------------|
D-------------------------------------------------------------------|


Repeat Outro Riff 1 4X with Fill 3 2X - end on D5 fade...

***This whole tab is my personal interpretation done completly by Ear.  My apologies for any mistakes.
   feel free to email me with any comments, suggestions, etc...***
Comments