Streets - Irony Of It All Chords & Tabs

 

Irony Of It All Chords & Tabs

Streets Chords & Tabs

Version: 1 Type: Bass Tab 0 ratings
1 star 2 stars 3 stars 4 stars 5 stars
comments

Irony Of It All Bass Tab

   
-------------------------------------------------------------------------------
			     the irony of it all - The Streets
-------------------------------------------------------------------------------

Tabbed By : zak
e-mail: zakduarte@aol.com



    Terrys rap
G|-----------------------------------------|
D|-----------------------------------------|
A|3-6-8-8-9-3-6-8-8-9-3-6-8-8-9-3-6-8-88-6-|
E------------------------------------------|
 
G|-----------------------------------------|
D|-----------------------------------------|
A|3-6-8-8-9-3-6-8-8-9-3-6-8-8-9-3-6-8-88-6-|
E------------------------------------------|

G|-----------------------------------------|
D|-----------------------------------------|
A|3-6-8-8-9-3-6-8-8-9-3-6-8-8-9-3-6-8-88-6-|
E------------------------------------------|

[ Tab from: http://www.guitartabs.cc/tabs/s/streets/irony_of_it_all_btab.html ]
    Tim (there is no bass for this bit)


    Terry again
G|-----------------------------------------|
D|-----------------------------------------|
A|3-6-8-8-9-3-6-8-8-9-3-6-8-8-9-3-6-8-88-6-|
E------------------------------------------|

G|-----------------------------------------|
D|-----------------------------------------|
A|3-6-8-8-9-3-6-8-8-9-3-6-8-8-9-3-6-8-88-6-|
E------------------------------------------|


    Tim(no bass)

    Terry.
G|-----------------------------------------|
D|-----------------------------------------|
A|3-6-8-8-9-3-6-8-8-9-3-6-8-8-9-3-6-8-88-6-|
E------------------------------------------|



    Tim(no bass)

    Terry.
G|-------------------|
D|-------------------|
A|3-6-8-8-9-3-6-8-8-9|
E|-------------------|

    Tim(no bass)


   And Terry.
G|-----|
D|-----|
A|3-6-8|
E|-----|
Comments