Streets - Fit But You Know It Chords & Tabs

 

Fit But You Know It Chords & Tabs

Streets Chords & Tabs

Version: 1 Type: Tab 0 ratings
1 star 2 stars 3 stars 4 stars 5 stars
comments

Fit But You Know It Tab

This is really easy! Just 2 chords A and D thru the entire song! 

Capo on fret 2 to match the recording!
[ Tab from: http://www.guitartabs.cc/tabs/s/streets/fit_but_you_know_it_tab.html ]
-------------x--------2-------------------x---------2----------------------
---2---------x--------3----------2--------x---------3----------------------
---2---x7----x--------2----------2--x7----x---------2-----------------------
---2---------x-------------------2--------x--------------------------------
-------------x----------------------------x--------------------------------
-------------x----------------------------x--------------------------------


-------------x--------2----------------------------------------------------
---2---------x--------3----------------------------------------------------
---2---x7----x--------3----Repeat through entire song----------------------
---2---------x-------------------------------------------------------------
-------------x-------------------------------------------------------------
-------------x-------------------------------------------------------------


Tabbed by geordiepete

Listen to the song to get the rhythm!
Comments