Straylight Run - Your Name Here Sunrise Highway Chords & Tabs

 

Your Name Here Sunrise Highway Chords & Tabs

Straylight Run Chords & Tabs

Version: 1 Type: Tab 0 ratings
1 star 2 stars 3 stars 4 stars 5 stars
comments

Your Name Here Sunrise Highway Tab

   
Straylight Run
Your Name Here(sunrise highway)

Standard Tune

This is a killer song and solo. I tried to tab it and did but not possitive on the last 
of the solo, plus im doing it by memory so it might not be 100% but sounds good. NHP 
of 2005!!!!

verse
*CHORUS
e--7-7-7-7-8---|
b-8-8-8-8-8----|
g--------------|
d--------------|
a--------------|
e--------------|

pre-chorus
* CLEAN GUITAR
D          Cadd9   D                Am        Cadd9   D
nothing so simple, Nothing so silly, Nothing so mundane


chorus
*CLEAN GUITAR
G Dadd9(xx0230) Em C

verse

pre-chorus

chours
[ Tab from: http://www.guitartabs.cc/tabs/s/straylight_run/your_name_here_sunrise_highway_tab.html ]
.- repeat
Solo-the repeat is three times
     * USE LIGHT Distortion or Chorus
e-3-5-3---3-5---7|-----------12-12-0-3-12-10-8-10--------12-12-0-3-12-10-8-10-|
b------0-3-------|-8-10-12-8---------------------8-10-12-8--------------------|
g----------------|------------------------------------------------------------|
d----------------|------------------------------------------------------------|
a----------------|------------------------------------------------------------|
e----------------|------------------------------------------------------------|

e-----------12-12-0-3-12-10-8-10----------12-0-3-2-3-5-3-2----|
b-8-10-12-8---------------------8-10-12-8---------------------|
g-------------------------------------------------------------|
d-------------------------------------------------------------|
a-------------------------------------------------------------|
e-------------------------------------------------------------|

e----------2-3-2------5-7------------------------------|
b------1-3-------5-7-8--------7-8-10-12-10-8-6-3-0-----|
g-0-2-4-------------------7-9----------------------2---|
d------------------------------------------------------|
a------------------------------------------------------|
e------------------------------------------------------|

Chorus to fade
Comments