Straylight Run - The Tension And The Terror Chords & Tabs

 

The Tension And The Terror Chords & Tabs

Straylight Run Chords & Tabs

Version: 2 Type: Tab 0 ratings
1 star 2 stars 3 stars 4 stars 5 stars
comments

The Tension And The Terror Tab

Yes, this tab was already posted.  However, the original poster took this tab
from another site that I had already posted this tab on, so I'm simply taking
credit for what is mine.  Enjoy!

Straylight Run - The Tension And The Terror

TABBED BY Shane M. Werley (werley1@hotmail.com)

Standard Tuning

Intro:

E|--------------|--------------|--------------|--------------|
B|--------------|--------------|--------------|--------------|
G|--1---1---1---|--1---1---1---|--4---4---4---|--2---2---2---|
D|---2---2---2--|---2---2---2--|---2---2---2--|---2---2---2--|
A|----2---2-----|----2---2-----|----2---2-----|----2---2-----|
E|--------------|--------------|--------------|--------------|

E|--------------|--------------|--------------|---------------|
B|--------------|--------------|--------------|---------------|
G|--1---1---1---|--1---1---1---|--4---4---4---|--2------------|
D|---2---2---2--|---2---2---2--|---2---2---2--|---------------|
A|----2---2-----|----2---2-----|----2---2-----|---------------|
E|--------------|--------------|--------------|---------------|


Verse (First half of verse no guitar, 2nd half all harmonics):

E---12~---------12~-12~---------12~--| 
B-------12~-------------12~----------| 
G------------------------------------| 
D------------------------------------| 
A------------------------------------| 
E------------------------------------|  


Pre-Chorus (2X):

E|------------|------------|------------|------------|
B|------------|------------|------------|------2-----|
G|------4-----|------4-----|------4-----|------------|
D|----4---4---|----4---4---|----4---4---|----4---4---|
A|--2---------|--0---------|------------|--0---------|
E|------------|------------|--4---------|------------| 


Chorus (2X):
[ Tab from: http://www.guitartabs.cc/tabs/s/straylight_run/the_tension_and_the_terror_tab_ver_2.html ]
E|-----------------------------------------|
B|----0------------------------------------|
G|----1-----6------------------------------|
D|----2-----6----4-----7-----9-------------|
A|----2-----4----4-----7-----9-------------|
E|----0----------2-----5-----7-------------| 


Repeat Intro.


Repeat Verse.


Repeat Pre-Chorus (2X).


Chorus (2X).




Bridge (3X):

E|---------------|--------------|---------------|---------------|
B|---------------|--------------|---------------|---------------|
G|-----6---------|--------------|---------------|---------------|
D|-----6--(X8)---|-----7--(X8)--|--6------7-(X4)|------9--(X8)--|
A|-----4---------|-----7--------|--6-(X4)-7-----|------9--------|
E|---------------|-----5--------|--4------5-----|------7--------| 


Chorus (2X).


Chorus Variation (2X):

E|-------------------------------------|
B|-------------------------------------|
G|---9--------/--8--------/--13--------|
D|---X--(8X)--/--X--(4X)--/--X--(4X)---|
A|---7--------/--6--------/--11--------|
E|-------------------------------------| 

E|-------------------------------------|
B|-------------------------------------|
G|---9--------/--8--------/--13--------|
D|---X--(8X)--/--X--(4X)--/--X--(4X)---|
A|---7--------/--6--------/--11--------|
E|-------------------------------------| 

E|-------------------------------------------------------------|
B|-------------------------------------------------------------|
G|---9--------/--8--------/--13-------/--14-------/--16--------|
D|---X--(8X)--/--X--(4X)--/--X--(4X)--/--X--(8X)--/--X--(8X)---|
A|---7--------/--6--------/--11-------/--12-------/--14--------|
E|-------------------------------------------------------------| 


End on:

E|----------------|
B|----------------|
G|---9--------/---|
D|---X--(8X)--/---|
A|---7--------/---|
E|----------------|
Comments