Straylight Run - Hands In The Sky Big Shot Chords & Tabs

 

Hands In The Sky Big Shot Chords & Tabs

Straylight Run Chords & Tabs

Version: 2 Type: Tab

Hands In The Sky Big Shot Tab

Alright so I was going through a few tabs, and I found a version of Hands In The Sky
(Big Shot) by Straylight Run, and I thought, "This is the harder way to play this song."
 The way I play it is much more simple and a bit more accurate. If you play it with the
song, you'll know why.

Standard Tuning.
[ Tab from: http://www.guitartabs.cc/tabs/s/straylight_run/hands_in_the_sky_big_shot_tab_ver_2.html ]
Main riff:
e|------------------------------------------------------------------------| 
B|------0-0-----0-0-----0-0--------------------------------1-1-0-0--------| 
G|----------2-2-------------2-2-0-0----0-0-----0-0-----0-0----------------| 
D|----2---------------2--------------------4-4----------------------------|
A|----------------------------------3-3------------3-3--------------------|
E|--0---------------0-----------------------------------------------------| 
This main riff I can hear a light tremolo.  I'm pretty sure you can hear it too.  


Although the main riff in all the other tabs were a bit inaccurate, I give them props
for even tabbing this song.  I swear, I thought that was piano in the beginning.  The
part where the guy starts yelling is accurate enough.  I can't really tell if it's
exactly correct because the yelling and drums get pretty intense.


2nd riff: "Big shot screaming 'Put your hands in the sky...'" part
e|--------------------------------| 
B|--------------------------------| 
G|---------------------------5~---| 
D|--2~-----------------------5~---| 
A|--2~-----------------------3~---| 
E|--0~----------------------------|

Use more tremolo than the main riff.

If you have any comments, feel free to contact me at xLinaChanOwnsYoux@hotmail.com.  

Lina. <3