Straylight Run - Hands In The Sky Big Shot Chords & Tabs

 

Hands In The Sky Big Shot Chords & Tabs

Straylight Run Chords & Tabs

Version: 1 Type: Tab 0 ratings
1 star 2 stars 3 stars 4 stars 5 stars
comments

Hands In The Sky Big Shot Tab

   
---------------------------------------------------------------------------- 
Hands In The Sky (Big Shot) - Straylight Run 
----------------------------------------------------------------------------
Tabbed by: Jason Pellegrini
Email: Mybandontheroad@yahoo.com

Tuning: Standard (EADGBe)

Okay, so I got my hands on the new Straylight Run EP like three weeks before
it came out. Shame on me!! Anyways I figured out the songs. This one is really
easy. Ony two different parts!

SOFT PART: CLEAN
e|-------------------------------------------------------------------------| 
B|-------------------------------------------------------------------------| 
G|-------------------------------------------------------------------------| 
D|--------9--9--7--7--9--9---------9--9--7--7--5--5------------------------| 
A|--7--7---------------------7--7------------------------------------------| 
E|-------------------------------------------------------------------------| 
[ Tab from: http://www.guitartabs.cc/tabs/s/straylight_run/hands_in_the_sky_big_shot_tab.html ]
e|-------------------------------------------------------------------------| 
B|-------------------------------------------------------------------------| 
G|---------------------------------------5--5--4--4------------------------| 
D|--------5--5--4--4--5--5---------5--5------------------------------------| 
A|--3--3---------------------3--3------------------------------------------| 
E|-------------------------------------------------------------------------| 

HEAVY PART: DISTORTION W/ TREMELO
e|-------------------------------------------------------------------------| 
B|-------------------------------------------------------------------------| 
G|---------------------------5~--------------------------------------------| 
D|--2~-----------------------5~--------------------------------------------| 
A|--2~-----------------------3~--------------------------------------------| 
E|--0~---------------------------------------------------------------------|

| / slide up 
| \ slide down 
| h hammer-on 
| p pull-off 
| ~ vibrato 
| + harmonic 
| x Mute note 
 
...and that's the whole song. Short but sweet. Any questions e-amil me
Comments