Straylight Run - Dignity And Money Acoustic Chords & Tabs

 

Dignity And Money Acoustic Chords & Tabs

Straylight Run Chords & Tabs

Version: 1 Type: Chords 0 ratings
1 star 2 stars 3 stars 4 stars 5 stars
comments

Dignity And Money Acoustic Chords

   
I tabbed this from the acoustic version they played on krock radio, which i got from
www.straylight-run.com
its not the way they play it live and i haven't heard the album version but i like this
anyway

Dignity and Money
Straylight Run

Chords
   C Gsus4 G7sus4 D7
e|-3--3------3----3-|
B|-1--1------1----1-|
G|-0--0------0----2-|
D|-2--0------3----3-|
A|-3--x------x----0-|
E|-0--3------2----x-|


Intro (with harmonica in background)

C  Gsus4  G7sus4  D7

Verse 1

C        Gsus4                G7sus4        D7
  Damage control, they're soo throughly modern,
C                      Gsus4             G7sus4      D7
  I'll tell you how it goes, it's not a serious problem

Break

   So, we can be convinced, and we can get convinced
e|--3----3--3--3--3--3--3--3--3--3--3--3--3----3-|
B|--1----1--1--1--1--1--1--1--1--1--1--1--1----1-|
G|--0----0--0--0--0--0--0--0--0--0--0--0--0----0-|
D|--2----2--2--2--2--2--2--2--2--2--2--2--2----2-|
A|--3----3--3--3--3--3--3--3--3--3--3--3--3----3-|
E|--0----0--0--0--0--0--0--0--0--0--0--0--0----0-|
pm       .  .  .  .  .  .  .  .  .  .  .  .    

  But, either way the truth is bond to get twisted
e|--3----3--3--3--3--3--3--3--3--3--3--3--3----3-|
B|--1----1--1--1--1--1--1--1--1--1--1--1--1----1-|
G|--0----0--0--0--0--0--0--0--0--0--0--0--0----0-|
D|--0----0--0--0--0--0--0--0--0--0--0--0--0----0-|
A|--x----x--x--x--x--x--x--x--x--x--x--x--x----x-|
E|--3----3--3--3--3--3--3--3--3--3--3--3--3----3-|
pm       .  .  .  .  .  .  .  .  .  .  .  .    

  You can take a break when the pain of the world
e|--3----3--3--3--3--3--3--3--3--3--3--3--3----3-|
B|--1----1--1--1--1--1--1--1--1--1--1--1--1----1-|
G|--0----0--0--0--0--0--0--0--0--0--0--0--0----0-|
D|--3----3--3--3--3--3--3--3--3--3--3--3--3----3-|
A|--x----x--x--x--x--x--x--x--x--x--x--x--x----x-|
E|--2----2--2--2--2--2--2--2--2--2--2--2--2----2-|
pm       .  .  .  .  .  .  .  .  .  .  .  .    
[ Tab from: http://www.guitartabs.cc/tabs/s/straylight_run/dignity_and_money_acoustic_crd.html ]
   is weighing on your next decesion
e|--3----3--3--3--3--3--3--3--3--3--3--3--3------|
B|--1----1--1--1--1--1--1--1--1--1--1--1--1------|
G|--2----2--2--2--2--2--2--2--2--2--2--2--2------|
D|--3----3--3--3--3--3--3--3--3--3--3--3--3------|
A|--0----0--0--0--0--0--0--0--0--0--0--0--0------|
E|--x----x--x--x--x--x--x--x--x--x--x--x--x------|

Chorus

C             G7sus4
 So I focus on what I've been promised,
D7                  Gsus4
 And it tore us open,and bleed us dry of our
(stop playin)
dignity and money

Repeat intro

Verse 2
C                 Gsus4        G7sus4          D7
  It's under control, so keep holding it together
C                       Gsus4         G7sus4              D7
  And things just fall apart but you know we can't wait forever

Break (same as last time)

So, come try keep this, keep this, you grit your teeth
And do your job, they'll never know the difference
Keep it going one day, a month, a year or more
Ignore that sinking feeling

Chorus (same as the first one except at the end instead of finishing on ...and money, go
to the begining and start the chorus again this time ending the same as the first chorus)

Intro

Interlude

D7(strum lightly)
well we should have seen it coming
                               (should have seen it..)

we should have seen it coming
                          (should have seen it..)

we should have seen it coming
                          (should have seen it..)
    C(strum once then end)     
we left ourselves wide open...

Chorus (same as second chorus except gentle slow struming gradually building up to catch
up with the regular speed when you reach the Gsus4 chord the first time, then on the
second time there finger clicking and a harmonica going on in the background and it ends
without the ...and money part going straight into the next verse)

C                           G7sus4              D7                          Gsus4  
Well maybe can all retain a bit of ourselves, remember who we were keep on moving
                (So I focus on what I've been promised,)
C                           G7sus4
Put things in perspective, try to learn a lesson
                (and it tore us open)
D7
Its not life or death...
Gsus4
Its only business...
C        Gsus4    C     Gsus4 C        Gsuus4      C 
no no no oh oh oh no no oh oh no no no ohhhhh oh oh
Comments