Stray Cats - Stray Cat Strut Chords & Tabs

 

Stray Cat Strut Chords & Tabs

Stray Cats Chords & Tabs

Version: 1 Type: Bass Tab 0 ratings
1 star 2 stars 3 stars 4 stars 5 stars
comments

Stray Cat Strut Bass Tab

Artist: Stray Cats
Song: Stray Cat Strut

Intro
G|--------------------------------|
D|--------------------------------|
A|---3-3--1-1----------------1--3-|
E|--------------4-4--3-3--3-------|

Verse 1   (played when there is no singing)
G|-------------------------|
D|-------------------------|
A|---3-3--1-1--------------|
E|--------------4-4--3-3-3-|

Verse 2 (played when there is singing)
G|---------------------|
D|---------------------|
A|---3--5--6--8--6--5--|
E|---------------------|

Pre-Chorus
[ Tab from: http://www.guitartabs.cc/tabs/s/stray_cats/stray_cat_strut_btab.html ]
G|-------------------------|
D|-------------------------|
A|---8-8--6-6--4-4--3-3-3--|
E|-------------------------|

Guitar Solo

Play Verse 2 and then 1 until solo is done

Chorus
G|---------5-4-5-7-5-4--------------------|
D|------6---------------6--8-6---8--9-8---|
A|---8------------------------------------|
E|----------------------------------------|

G|-------------------------------------------|
D|-------------------8-----------------------|
A|---10--10------10-----10--8--7-7---6-6-5-5-|
E|-----------8-8-----------------------------|

After Chorus play Verse 2 then 1

At the end play intro
Comments