Stray Cats - Rumble In Brighton Chords & Tabs

 

Stray Cats Chords & Tabs

Version: 1 Type: Tab 0 ratings
1 star 2 stars 3 stars 4 stars 5 stars
comments

Rumble In Brighton Tab

   
-STRAY CATS-
Rumble in Brighton

Words and music by Brian Setzer and Lee Rocker

Standard Tuning: E A D G B E

/-slide up
\-slide down
h-hammer on
p-puller off
~-let ring
#(#)-bend
#(#)#-bend, then resolve
(#)#-pre bend
#(#)(#)(#)-bend, then pick on the way back down

Intro				F
e-----------------------1-1-1--1-1-1--1-1-1--1-1-1--|
B-----------------------1-1-1--1-1-1--1-1-1--1-1-1--|
G-----------------------1-1-1--1-1-1--1-1-1--1-1-1--|
D---------------------------------------------------|
A---------------------------------------------------|
E---------------------------------------------------|
 "Fights right here!"

e-----------------------------------------------------|
B-----------------------------------------------------|
G-----------------------------------------------------|
D-----------------------------------------------------|
A--------1--3---------1--3---------1--3---------1--3--|
E--1--4---------1--4---------1--4---------1--4--------|
   Em~			     Em~

e-----------------------------------------------------|
B-----------------------------------------------------|
G-----------------------------------------------------|
D--------1--3---------1--3----------------------------|
A--1--4---------1--4---------------1--3---------1--3--|
E----------------------------1--4---------1--4--------|
   A5~			     Em~

e--------------------------------------------------------------------|
B-----------------------------1~-------------------------------------|
G--3--3-3--3-3--3-------------1~--(x2)--3--3-3--3-3--3---------------|
D--3--3-3--3-3--3--------1-3------------3--3-3--3-3--3---------------|
A--1--1-1--1-1--1---1-4-----------------1--1-1--1-1--1---------------|
E--------------------------------------------------------7--5--3--2--|

e-----------------------------------------------------|
B-----------------------------------------------------|
G-----------------------------------------------------|
D-----------------------------------------------------|
A--------1--3---------1--3---------1--3---------1--3--|
E--1--4---------1--4---------1--4---------1--4--------|
   Em~			     Em~

e-----------------------------------------------------------|
B-----------------------------------------------------------|
G-----------------------------------------------------------|
D--3-3-3-3-5-5-5-5-6-6-6-6-8-8-8-8-10-10-10-10-11-11-11-11--|
A--1-1-1-1-3-3-3-3-4-4-4-4-6-6-6-6-8--8--8--8--9--9--9--9---|
E-----------------------------------------------------------|

e----------------------------------|
B----------------------------------|
G----------------------------------|
D--13-13-13-13-15-15-15-15-15-15~--|
A--11-11-11-11-13-13-13-13-13-13~--|
E----------------------------------|

e-----------------------------------------------------|
B-----------------------------------------------------|
G-----------------------------------------------------|
D-----------------------------------------------------|
A--------1--3---------1--3---------1--3---------1--3--|
E--1--4---------1--4---------1--4---------1--4--------|
   Em~			     Em~

Verse
   Fm barre
e--1-1----------------1-1-----------------1-1----------------1-1--|
B--1-1----------------1-1-----------------1-1----------------1-1--|
G-----------------------------------------------------------------|
D-----------------------------------------------------------------|
A------3--3-3--3-3-3-------3--3-3--3-3-3------3--3-3--3-3-3-------|
E-----------------------------------------------------------------|

   Am barre			    Fm barre
e--5-5-----------------5-5~----------------1-1-----------------1-1--|
B--5-5-----------------5-5~----------------1-1-----------------1-1--|
G-------------------------------------------------------------------|
D-------------------------------------------------------------------|
A-------7--7-7--7-7-7-------3--3-3--3-3-3-------3--3-3--3-3-3-------|
E-------------------------------------------------------------------|
Note: the verse is hard to explain in notation, as Brian plays this
really loosely. Just play the notes on the e and B strings, 
and scratch the bass notes if you want.

Chorus
e--------------------------------------|
B----------------------------1~--------|
G--3--3-3--3-3-3-------------1~--(x3)--|
D--3--3-3--3-3-3--------1-3------------|
A--1--1-1--1-1-1---1-4-----------------|
E--------------------------------------|

e---------------1-1-1--1-1-1--1-1-1--1-1-1--|
B---------------1-1-1--1-1-1--1-1-1--1-1-1--|
G--3------------1-1-1--1-1-1--1-1-1--1-1-1--|
D--3----------------------------------------|
A--1----------------------------------------|
E-------------------------------------------|

e-----------------------------------------------------|
B-----------------------------------------------------|
G-----------------------------------------------------|
D-----------------------------------------------------|
A--------1--3---------1--3---------1--3---------1--3--|
E--1--4---------1--4---------1--4---------1--4--------|
   Em~			     Em~
[ Tab from: http://www.guitartabs.cc/tabs/s/stray_cats/rumble_in_brighton_tab.html ]
e-----------------------------------------------------------|
B-----------------------------------------------------------|
G-----------------------------------------------------------|
D--3-3-3-3-5-5-5-5-6-6-6-6-8-8-8-8-10-10-10-10-11-11-11-11--|
A--1-1-1-1-3-3-3-3-4-4-4-4-6-6-6-6-8--8--8--8--9--9--9--9---|
E-----------------------------------------------------------|

e----------------------------------|
B----------------------------------|
G----------------------------------|
D--13-13-13-13-15-15-15-15-15-15~--|
A--11-11-11-11-13-13-13-13-13-13~--|
E----------------------------------|

e-----------------------------------------------------|
B-----------------------------------------------------|
G-----------------------------------------------------|
D-----------------------------------------------------|
A--------1--3---------1--3---------1--3---------1--3--|
E--1--4---------1--4---------1--4---------1--4--------|
   Em~			     Em~

Verse (let the little lead bits let ring in this verse)

Chorus

Leadbreak
e------------------------------------------------------------------|
B------------------------------------------------------------------|
G--10(11)--10(11)--10(11)--10(11)----------------------------------|
D----------------------------------10(11)--10(11)--10(11)--10(11)--|
A------------------------------------------------------------------|
E------------------------------------------------------------------|

e----------------------------------------------------------|
B----------------------------------------------------------|
G--10(11)--8-8-8---10(11)--8-8-8\--------------------------|
D----------------------------------------------------------|
A-------------------------------------------0--2--0--------|
E-------------------------------------0--3-----------3--0--|

e--1-4-1---------------------------------|
B--------4-4-1---------------------------|
G--------------3-3-1---3p1---------------|
D--------------------3-----3-3p1---------|
A--------------------------------3-------|
E----------------------------------2(3)--|

e--------------------------------------------|
B--/5--5-----3--3----------------------------|
G--/4--4-----2--2--3(4)3--1------------------|
D----------------------------3--1-----1--3/--|
A----------------------------------3---------|
E--------------------------------------------|

e---------------------------------------------------|
B----------------------------------------14~--------|
G----------------------------------------14~--(x2)--|
D--/16--16-16--16-16--16----------14-16-------------|
A--/14--14-14--14-14--14---14-17--------------------|
E---------------------------------------------------|

e----------------------------------------|
B----------------------------------------|
G----------------------------------------|
D--15--15-15--15-15--15------------------|
A--13--13-13--13-13--13------------------|
E------------------------19--17--15--14--|

e--0~------------|
B--0~------------|
G--0~------------|
D--2~------------|
A--2~------------|
E--0~------------|
Note: feedback peaks here, use whammy if you
have it, but it sounds fine with just the Em
chord though.

e-----------------------------------------------------------|
B-----------------------------------------------------------|
G-----------------------------------------------------------|
D--3-3-3-3-5-5-5-5-6-6-6-6-8-8-8-8-10-10-10-10-11-11-11-11--|
A--1-1-1-1-3-3-3-3-4-4-4-4-6-6-6-6-8--8--8--8--9--9--9--9---|
E-----------------------------------------------------------|

e----------------------------------|
B----------------------------------|
G----------------------------------|
D--13-13-13-13-15-15-15-15-15-15~--|
A--11-11-11-11-13-13-13-13-13-13~--|
E----------------------------------|

e-----------------------------------------------------|
B-----------------------------------------------------|
G-----------------------------------------------------|
D-----------------------------------------------------|
A--------1--3---------1--3---------1--3---------1--3--|
E--1--4---------1--4---------1--4---------1--4--------|
   Em~			     Em~

Verse

Chorus

Outro
e--------------------------------------|
B--------------------------------------|
G--3--3-3--3-3--3----------------------|
D--3--3-3--3-3--3----------------------|
A--1--1-1--1-1--1----------------------|
E------------------2(3)2--2(3)2--2--0--|

e------------------------------------------|
B------------------------------------------|
G--3--3-3--3-3--3--4(5)--4(5)--2-----------|
D--3--3-3--3-3--3-----------------4--2--0--|
A--1--1-1--1-1--1--------------------------|
E------------------------------------------|

e--------------------------------------------------------------|
B------------4(5)-(5)-(5)-(5)-(5)-(5)-(5)-(5)------------------|
G--3--3-3--3-4(5)-(5)-(5)-(5)-(5)-(5)-(5)(5)--3--3-3--3-3--3--|
D--3--3-3--3-----------------------------------3--3-3--3-3--3--|
A--1--1-1--1-----------------------------------1--1-1--1-1--1--|
E--------------------------------------------------------------|

e----------------------------------------|
B----------------------------1~----------|
G--3--3-3--3-3-3-------------1~--(x3)-3--|
D--3--3-3--3-3-3--------1-3-----------3--|
A--1--1-1--1-1-1---1-4----------------1--|
E----------------------------------------|

Finally...
e--------0~------------2~----------------|
B--------0~------------0~----------------|
G--------0~------------0~----------------|
D--------2~------------2~----------------|
A--------2~------------2~----------------|
E--3--2--0~------------0~----------------| 
Comments