Stratovarius - Years Go By Chords & Tabs

 

Years Go By Chords & Tabs

Stratovarius Chords & Tabs

Version: 1 Type: Tab 0 ratings
1 star 2 stars 3 stars 4 stars 5 stars
comments

Years Go By Tab

                         YEARS GO BY
                      ------------------
                        by Stratovarius
Album:Destiny
Tabbed By Aris Thanos
e-mail:jiannis@otenet.gr
Tune 1/2 step down


Intro Piano

Chorus:
eb|--------------------------------------------------------------|
Bb|--------------------------------------------------------------|
Gb|--------------------------------------------------------------|
Db|---3----------------------------3-----------------------------|
Ab|---1---6---4-----4~-5~--7~------1---6---4-----4~-5~--7~-------|
Eb|-------4---2--3~--------------------4---2---3~----------------|


  1st solo :                                                            (1 1/2)  
eb|---8[b]r-6----8[b]r----8[b]h9-------------------8[b]r-6----8[b]r----8[b]--6-----------|
Bb|------------6-------6---------6--10p8--6-5~-------------6--------6--------------------|
Gb|--------------------------------------------------------------------------------------|
Db|--------------------------------------------------------------------------------------|
Ab|--------------------------------------------------------------------------------------|
Eb|--------------------------------------------------------------------------------------|

                   sl.                                           sl.
eb|--8h9-8--6-8---\11--13-14-11---13-14-11---------------------|--\16-16-14-14-13-13-------------|
Bb|-----------------------------------------14--13h14p13-11-13-|----------------------16-16------|
Gb|------------------------------------------------------------|---------------------------------|
Db|------------------------------------------------------------|---------------------------------|
Ab|------------------------------------------------------------|---------------------------------|
Eb|------------------------------------------------------------|---------------------------------|

[ Tab from: http://www.guitartabs.cc/tabs/s/stratovarius/years_go_by_tab.html ]
eb|--16-16-14-14-13-13-------|---------*-----------------------------------------------|
Bb|--------------------16-16-|--14-13--14p13h14p13--14p13h14p13------------------------|
Gb|--------------------------|---------------------------------------------------------|
Db|--------------------------|---------------------------------------------------------|
Ab|--------------------------|---------------------------------------------------------|
Eb|--------------------------|---------------------------------------------------------|

Chorus

 2nd solo
eb|--------------------------------------------------------------------------------|
Bb|--------------------------------------------------------------------------------|
Gb|---5[b]r-5-3---------------a.h------3-5-6-5-3----------------a.h----------------|
Db|-------------3--6-4-4~--6--8[b]-5-------------3--6-4-4~---6--8[b]--5------------|
Ab|--------------------------------------------------------------------------------|
Eb|--------------------------------------------------------------------------------|


eb|---6-8-9-8-6------------------9--9h11h13--11-9-8~----------6-8-9-8-6----------------9--9h11h13--11-9-8~-----|
Bb|--------------6--9--7-7~---------------------------------------------6--9--7-7~-----------------------------|
Gb|------------------------------------------------------------------------------------------------------------|
Db|------------------------------------------------------------------------------------------------------------|
Ab|------------------------------------------------------------------------------------------------------------|
Eb|------------------------------------------------------------------------------------------------------------|


 fade out
eb|------\21-20-18------------------16--16[b]-14-13~~------18--20-21-20-18-------------------------------------|
Bb|----------------18--21-18-18~~---14-------------------------------------18-21--19-19~~..............--------|
Gb|------------------------------------------------------------------------------------------------------------|
Db|------------------------------------------------------------------------------------------------------------|
Ab|------------------------------------------------------------------------------------------------------------|
Eb|------------------------------------------------------------------------------------------------------------|

Comments