Stratovarius - We Are The Future Chords & Tabs

 

We Are The Future Chords & Tabs

Stratovarius Chords & Tabs

Version: 1 Type: Tab 0 ratings
1 star 2 stars 3 stars 4 stars 5 stars
comments

We Are The Future Tab

                           Music :We Are The Future
                              Album :DREAMSPACE

by SErgio Daher - BRAZIL
MAIL:
dtheater@hotmail.com
sergiod@sti.com.br

my page: "Guitar Hero Page"
http://www.geocities/SunsetStrip/Stage/2522/index.htm

[ Tab from: http://www.guitartabs.cc/tabs/s/stratovarius/we_are_the_future_tab.html ]
 Guitar 1/2 step down!!!
-------------------------
/\/ = Vibrato
/   = Slide Up
ha  = Harmonic
1/2 = bend half step
-------------------------
    intro:       pm.........................................................
Eb|-------------------------------------------------------------------------|
Bb|-------------------------------------------------------------------------|
Gb|-------------------------------------------------------------------------|
Db|----------5-/7-5--------------------5/7-------------7-/-5---5------------|
Ab|--19-/5---5--5-5-5-5-5-5-5-5-5-5-5--5-5-5-5-5-5-5-5-------8---8--7-5-----|
Eb|----------------------------------------------------------------------8--|
               .............................................................]
Eb|-------------------------------------------------------------------------|
Bb|-------------------------------------------------------------------------|
Gb|-10/\-5/\/\/-------------------------------------------------------------|
Db|-10/\-5/\/\/--------5-/7-5--------------------5/7-------------7-/-5---5--|
Ab|--8/\-3/\/\/-5--5-5-5-5-5-5-5-5-5-5-5--5-5-5-5-5-5-5-5-------8---8--7-5--|
Eb|-------------------------------------------------------------------------|
                               Pm...............       ............
Eb|-------------------------------------------------------------------------|
Bb|-----------------|-------------------------------------------------------|
Gb|-----------------|-------------------------------------------------------|
Db|---10--10--12----|----5-/-7---------------------5-/-7-----------5-7------|
Ab|----8--10--12----|----5---5---5-5-5-5-5-5-5-5-5-5---5-5-5-5-5-5-5-5------|
Eb|----8---8--10------------------------------------------------------------|
       ..............         ............]
Eb|-------------------------------------------------------------------------|
Bb|-------------------------------------------------------------------------|
Gb|-------------------5---------------------2/\/\/-------3-4-------------2--|
Db|-5-5---------------5-5-5-4--3-3-3-3-3-3--2/\/\/---3-3-3-5-5-5--3-3-3--2--|
Ab|-3-3-3-3-3-3-3-3-3-3-3-3-3--1-1-1-1-1-1--0/\/\/---1-1-1-5-5-5--3-3-3--0--|
Eb|--------------------------------------------------------3-3-3--1-1-1-----|

Eb|-------------------------------------------------------------------------|
Bb|---------------------------|----------------------|----------------------|
Gb|-2/\/\----3/2---2----------|-10-------------------|----------------------|
Db|-2/\/\--------5---5/3-2----|-10-10--10--7-7-------|----------------------|
Ab|-0/\/\---------------------|--8--8--10--5-5--7-7--|----------------------|
Eb|-------------------------------------8-------5-5-------------------------|

End.
Comments