Stratovarius - Uncertainty Chords & Tabs

 

Uncertainty Chords & Tabs

Stratovarius Chords & Tabs

Version: 1 Type: Tab 0 ratings
1 star 2 stars 3 stars 4 stars 5 stars
comments

Uncertainty Tab

                                        Uncertainty
By Niuton Filho (Brazil)        
  
Tune Down 1/2 Step
  
Intro:                                           Repeat 2x, plus    Verse 1
e:---------------------------------------------------------------------------|
B:-------7/8--7--5-------7/8--7--5-------7/8-10--8--7--|--8--5------|--------|
G:-------6/7--6--4-------6/7--6--4-------6/7--9--7--6--|--7--4------|--------|
D:-------4/5--4--2-------4/5--4--2-------4/5--7--5--4--|--5--2------|--------|
A:--2-2-------------2-2-------------2-2----------------|------------|--------|
E:---------------------------------------------------------------------------|

   (only bass)   Bridge
e:----------------0-----------------------------------------------------------|
B:-------------|--5----7----|-------------------------------------------------|
G:-------------|--4----6----|----------------------------------8--10-12--8----|
D:-------------|--2----4----|--2(--)-2--------2(---)2-------------------------|
A:-------------|------------|--0-0-0-0--5--5--0-0-0-0--5--5----6--8--10--6----|
E:--------------------------------------3--3-----------3--3-------------------|

      Repeat 2x, plus
e:---------------------------------------------------------------------------|
B:--------|--------------|-Repeat-Intro-|-Repeat-Verse-1-|-Repeat-Bridge-|-Re|
G:--------|--------------|--------------|----------------|---------------|---|
D:--------|--------------|--------------|----------------|---------------|---|
A:3--3--3-|--5-----------|--------------|----------------|---------------|---|
E:1--1--1----3---------------------------------------------------------------|

                Guitar Solo
e:---------------------------------------------------------------------------|
B:peat-Chorus-|--------------------------------------------------------------|
G:------------|-----------------------------------------------------------ah-|
D:------------|-----------------9b(11)--9b(11)--11--12--12b(14)---12--11--12~|
A:------------|--0(diving-bar)-----------------------------------------------|
E:---------------------------------------------------------------------------|

[ Tab from: http://www.guitartabs.cc/tabs/s/stratovarius/uncertainty_tab.html ]
e:---------------------------------------------------------------------------|
B:------------------------------------------------12-------------------------|
G:---------9b(11)rb9--------------------------------------11----7-9b(11)rb7-9|
D:--9--12-------------12--9~~--9--9--12--11-9~9-9----9-9------9--------------|
A:---------------------------------------------------------------------------|
E:---------------------------------------------------------------------------|



e:---------------------------------------------------------------------------|
B:15b(17)(17)--(17)rb15~--13--15--17--15--13--15--17--19--17--15--15~~-------|
G:---------------------------------------------------------------------------|
D:------------------------10--12--14--12--10--12--14--16--14--12--12~~----12-|
A:---------------------------------------------------------------------------|
E:---------------------------------------------------------------------------|


e:---------------------------------------------------------------------------|
B:---------------------------------------------------------------------------|
G:---------12--------------------------12--14--12--------------------------12|
D:-14--15------15--14--12--12--14--15--------------15--14--12--12--14--15----|
A:---------------------------------------------------------------------------|
E:---------------------------------------------------------------------------|


e:----------------------------------------------------------13--15--17--15--13--------|
B:----------------------------------------------13--15--17---------------------17b(19)|
G:--14--15--------------------------12--14--15----------------------------------------|
D:----------15--14--12--12--14--15----------------------------------------------------|
A:------------------------------------------------------------------------------------|
E:------------------------------------------------------------------------------------|

                           
e:------------------------------------------------------------------------------|
B:-------------|-Repeat-Chorus-|-Chorus-1-tone-above-|-Repeat-Intro-1-tone-above|
G:-------------|---------------|---------------------|--------------------------|
D:-------------|---------------|---------------------|--------------------------|
A:-------------|---------------|---------------------|--------------------------|
E:------------------------------------------------------------------------------|


e:---------|
B:----|-End|
G:----|----|
D:----|----|
A:----|----|
E:---------|
Comments