Stratovarius - Tommorrow Chords & Tabs

 

Tommorrow Chords & Tabs

Stratovarius Chords & Tabs

Version: 1 Type: Tab 0 ratings
1 star 2 stars 3 stars 4 stars 5 stars
comments

Tommorrow Tab

                           Tomorrow  (Stratovarius)

From "Episode" album

By Niuton Filho(Brazil).


  Tune down 1/2 step.

  Intro(Guit 1)
e:-----------------------------------------|
B:-----------------------------------------|
G:-----------------------------------------|
D:--9---------7---------5---------7--------|
A:--7----7----5----5----3----5----5--------|
E:-------5---------3---------3---------3--1|


  Intro(Guit 2)
e:---------------------------------------------------------------------------|
B:---------------------------------------------------------------------------|
G:--16~--17b(19)rb17--16--14--12--14~--17--16--14--12--11--12~--14b(16)rb14--|
D:---------------------------------------------------------------------------|
A:---------------------------------------------------------------------------|
E:---------------------------------------------------------------------------|


e:-----------------------------|
B:-----------------------------|
G:12--11--12--16~--17--16--14~-|
D:-----------------------------|
A:-----------------------------|
E:-----------------------------|


    Riff 1
e:---------------------------------------------------------------------------|
B:---------------------------------------------------------------------------|
G:---------------------------------------------------------------------------|
D:-9-----------9-----------9-------9-----------9--9-----------9----------10--|
A:-7-----------7-----------7-------7-----------8--7-----------7-----------7--|
E:----7-7-7-7-----7-7-7-7-----7-7-----8-8-8-8--------7-7-7-7-----7-7-7-7-----|
     (_______)   (_______)   (___)


e:---------|
B:---------|
G:---------|
D:--10--10-|
A:---7---7-|
E:---------|


   While singing
e:---------------------------------------------------------------------------|
B:---------------------------------------------------------------------------|
G:---------------------------------------------------------------------------|
D:-9---------------9---------------9---------------9--7---------------7------|
A:-7--7-7-7-7-7-7--7--7-7-7-7-7-7--7--7-7-7-7-7-7--7--5--5-5-5-5-5-5--5--5-5-|
E:---------------------------------------------------------------------------|


e:---------------------------------------------------------------------------|
B:---------------------------------------------------------------------------|
G:---------------------------------------------------------------------------|
D:---------7---------------7--5---------------5---------------5--------------|
A:5-5-5-5--5--5-5-5-5-5-5--5--3--3-3-3-3-3-3--3--3-3-3-3-3-3--3--3-3-3-3-3-3-|
E:---------------------------------------------------------------------------|


                             Bridge              Chorus
e:-------------------------|-------------------|--------------------|
B:-------------------------|-------------------|-Play-same-as-intro-|
G:-------------------------|-------------------|--------------------|
D:-5--------------------7--|-4----5----7----4--|--------------------|
A:-3--3-3-3-3-3-3----5--5--|-2----3----5----2--|--------------------|
E:-------------------3-----|-------------------|--------------------|

[ Tab from: http://www.guitartabs.cc/tabs/s/stratovarius/tommorrow_tab.html ]
e:---------------|--------------|---------------|---------------|
B:-Repeat-Riff-1-|-Repeat-While-|-Repeat-Bridge-|-Repeat-Chorus-|
G:---------------|---Singing----|---------------|---------------|
D:---------------|--------------|---------------|---------------|
A:---------------|--------------|---------------|---------------|
E:---------------|--------------|---------------|---------------|
                
                
e:-------------|
B:-------------|
G:-------------|
D:-------------|
A:-2--3--2--3--|
E:-0--1--0--1--|


  Guiar solo                         T           T
e:--------------------------14h15h18h21p18p15p14p21h18h15h14-----------------|
B:--17b(19)~--17b(19)rb17~------------------------------------16--14--13-----|
G:------------------------------------------------------------------------14-|
D:---------------------------------------------------------------------------|
A:---------------------------------------------------------------------------|
E:---------------------------------------------------------------------------|


e:---------------------------------------------------------------------------|
B:---------16--14--13--------------16--14--13--------------------------------|
G:-13--11--------------14--13--11--------------14--13--11--13--11------11----|
D:-----------------------------------------------------------------15------15|
A:---------------------------------------------------------------------------|
E:---------------------------------------------------------------------------|


e:-----------------------------------------|-------------|
B:-----------------------------------------|Keyboard-solo|
G:-----------------------------------------|-------------|
D:--13--15--13--13--12--13--12------12-----|-------------|
A:------------------------------16------16-|-------------|
E:-----------------------------------------|-------------|


   2nd G.Solo
e:---------------------------------------------15--17--19--17--15------------|
B:---------------------------------14--16--18----------------------18--16--14|
G:-------------14--15--17--15--14--------------------------------------------|
D:-13--15--16----------------------------------------------------------------|
A:---------------------------------------------------------------------------|
E:---------------------------------------------------------------------------|


e:----------15--17--19--17--15--------------15--17--19--17--15------14-------|
B:--16--18----------------------18--16--14----------------------18------18--1|
G:---------------------------------------------------------------------------|
D:---------------------------------------------------------------------------|
A:---------------------------------------------------------------------------|
E:---------------------------------------------------------------------------|


e:---------------------------------------------------------------------------|
B:6--14--------------14--16--18--16--14------14------------------------------|
G:-------17--15--14----------------------17------17--15--14--------------17--|
D:-----------------------------------------------------------16--15--13------|
A:---------------------------------------------------------------------------|
E:---------------------------------------------------------------------------|


e:----------------------------|---------------|--------------|---|
B:----------------------------|-Repeat-chorus-|--------------|---|
G:16--14----------------------|---------------|--------------|End|
D:--------16--15--13----------|---------------|--------------|---|
A:--------------------16--16~-|---------------|---------2----|---|
E:----------------------------|---------------|3--2--3--0----|---|

End.
Comments