Stratovarius - Stratovarius Chords & Tabs

 

Stratovarius Chords & Tabs

Stratovarius Chords & Tabs

Version: 1 Type: Tab 0 ratings
1 star 2 stars 3 stars 4 stars 5 stars
comments

Stratovarius Tab

   
Location: Season of Change - http://www.sci.fi/~jnevala/stratovarius/


STRATOVARIUS - STRATOVARIUS (From 4th Dimension)
Music By: Timo Tolkki

Transcribed By: Niclas Buss

Email:  nbjbuss@hotmail.com

Tune down 1/2 step!

 Riff 1     								x4  Riff 2
E--12-13-12-10-9-10--12-13-15-13-12-10--12-13-12-10-9-10--12-13-15-18-17-----18-17-15----------|
B-------------------------------------------------------------------------|-----------18-17-15-|
G*-----------------------------------------------------------------------*|--------------------|
D*-----------------------------------------------------------------------*|--------------------|
A-------------------------------------------------------------------------|--------------------|
E----------------------------------------------------------------------------------------------|
  <-------x4------->			<------x4------->

E--------------------------------------------------------------13h17p13h17p13h17p13h17-15h18p15|
B-18-17-15-----------------------------------------------11------------------------------------|
G----------18-15-14-18-15-14--------------------------12---------------------------------------|
D----------------------------17-15-14-17-15-14-------------------------------------------------|
A-----------------------------------------------17-16------------------------------------------|
E----------------------------------------------------------------------------------------------|

Eh18p15h18p15h18-13h17p13h17p13h17p13h17-12h15p12h15p12h15p12h15-13h17p13h17p13h17p13h17-15h18p|
B----------------------------------------------------------------------------------------------|
G----------------------------------------------------------------------------------------------|
D----------------------------------------------------------------------------------------------|
A----------------------------------------------------------------------------------------------|
E----------------------------------------------------------------------------------------------|

E15h18p15h18p15h18-13h17p13h17p13h17p13h17----------14-15-17-----13h17p13h17p13h17p13h17-15h18p|
B-------------------------------------------14-15-17-------------------------------------------|
G----------------------------------------------------------------------------------------------|
D----------------------------------------------------------------------------------------------|
A----------------------------------------------------------------------------------------------|
E----------------------------------------------------------------------------------------------|

E15h18p15h18p15h18-13h17p13h17p13h17p13h17-12h15p12h15p12h15p12h15--10h13----13h15p13-12h15----|
B-------------------------------------------------------------------------11----------------13-|
G----------------------------------------------------------------------------------------------|
D----------------------------------------------------------------------------------------------|
A----------------------------------------------------------------------------------------------|
E----------------------------------------------------------------------------------------------|

E-15h17p15-13h17----17h18p17-15h18----18h20p18-17h20----20h22p20-18h22----22-22b(24)--22-21-18-|
B----------------15----------------17----------------18----------------20----------------------|
G----------------------------------------------------------------------------------------------|
D----------------------------------------------------------------------------------------------|
A----------------------------------------------------------------------------------------------|
E----------------------------------------------------------------------------------------------|

E-17-15-17----10h13----13h15p13-12h15----15h17p15-13h17----17h18p17-15h18----18h20p18-17h20----|
B-------------------11----------------13----------------15----------------17----------------18-|
G----------------------------------------------------------------------------------------------|
D----------------------------------------------------------------------------------------------|
A----------------------------------------------------------------------------------------------|
E----------------------------------------------------------------------------------------------|

E-20h22p20-18h22----22-22b(24)-22-21-18-17-15-17-----18-17-15----------------------------------|
B----------------20-------------------------------------------18-17-15-18-17-15----------------|
G-------------------------------------------------------------------------------18-15-14-18-15-|
D----------------------------------------------------------------------------------------------|
A----------------------------------------------------------------------------------------------|
E----------------------------------------------------------------------------------------------|

		 end Riff 2       x2				      Guitar Solo 1
E--------------------------------------------------------13-/17-/22----------------------------|
B---------------------------|--------|--------|-------15-------------|-8b(10)-r8---6-5---------|
G-14------------------------|-Riff-1-|-Riff-2-|----14----------------|-----------------7-6--A.H|
D----17-15-14-17-15-14------|--------|--------|-15-------------------|---------------------8-7-|
A----------------------17---|--------|--------|----------------------|-------------------------|
E----------------------------------------------------------------------------------------------|
									            pm.....|

E------------------------------------------19b(20)-r19--19-20-19-17----------------17-19-20-19-|
B-------------------------------------------------------------------20-19-17-19-20-------------|
G-----------6----------------------------------------------------------------------------------|
D-----5-7h8---8-7-5----------------------------------------------------------------------------|
A-7-8---------------8-7-5-4--------------------------------------------------------------------|
E---------------------------6-6b(6)-5\--------------------------------------------------------|
  pm...|     pm............|

E-17-------------------------------------------------------------------------------------------|
B----20-19-17-16----------16-17-16-------------------------------------------------------------|
G----------------17-16-17----------17-16----------------16-17-16-----------------------16-17---|
D-----------------------------------------19-17-16-17-19----------19-17-16----16-17-19-------16|
A--------------------------------------------------------------------------19------------------|
E----------------------------------------------------------------------------------------------|

E-------------------------------------17-19-20-19-17-----------------------------------12--14--|
B----------------17----------17-19-20----------------20-19-20-19-17---|------------12----------|
G-------16-17-19----16-17-19------------------------------------------|-9--11--12--------------|
D-17-19---------------------------------------------------------------|------------------------|
A---------------------------------------------------------------------|------------------------|
E----------------------------------------------------------------------------------------------|

E-14--/19~-------7-12-7----------------------------------7-12-7--------------------------------|
B--------------8--------8-------10---------------------8--------8-------10-------------13--12~-|
G------------9------------9---9----9-------11-7-9~---9------------9---9----9-------11--14--12~-|
D---------------------------9--------10-7---------------------------9--------10-7--------------|
A----------------------------------------------------------------------------------------------|
E----------------------------------------------------------------------------------------------|

E-----7-12-7---------------------------------7-12-7--------------------------------------------|
B---8--------8-------10--------------------8--------8-------10-------------13--12~--\-Trem.bar-|
G-9------------9---9----9-------11-7-9~--9------------9---9----9-------11--14--12~--\\---------|
D----------------9--------10-7--------------------------9--------10-7----------------\\--------|
A-------------------------------------------------------------------------------------\\-------|
E----------------------------------------------------------------------------------------------|

  Fade in 
E----------------------------------------------------------------------------------------------|
B--------------------------------------------------------------------------|-------------------|
G--------------------------------------------------------------------------|-------------------|
D--------------------------------------------------------------------------|--9----7----12----5|
A--7-7-7-7-7-7-7-7-7-7-7-7-7-7-7-7-7-7-7-7-7-7-7-7-7-7-7-7-7-7-7-7-7-7...--|--7----5----10----3|
E----------------------------------------------------------------------------------------------|
  pm......................................................................|
[ Tab from: http://www.guitartabs.cc/tabs/s/stratovarius/stratovarius_tab.html ]
E----------echo.............|---------------------------------echo.................|-----------|
B---//17--(/17---/17---/17-)----------------------------/17--(/17---/17---/17---/17)-----------|
G------------------------------------------------10--------------------------------------------|
D---------------------------------9----7----12----8--------------------------------------------|
A---------------------------------7----5----10-------------------------------------------------|
E----------------------------------------------------------------------------------------------|
														   
E----------------------------------------------------------------------------------------------|
B----------------------------------------------------------------------------------------------|
G*---------------------------------------------------------------------------------------------|
D*---------------------------------------5-4-5-7-5-4------------------------------------------5|
A--5h7-7-7-7-7--5h7-7-7-7-7--5h7-7-7-7-7-------------5--5h7-7-7-7-7--5h7-7-7-7-7--5h7-7-7-7-7--|
E----------------------------------------------------------------------------------------------|
      pm......|    pm......|    pm......| pm    pm          pm......|   pm.......|    pm......|

     x2
E----------------------------------------------------------------------------------------------|
B------|---------------------------------------------------------------------------------------|
G-----*|*--------------------------------------------------------------------------------------|
D-4~--*|*----------------------------------------7-6-7-9-7-6-----------------------------------|
A------|--7h9-9-9-9-9--7h9-9-9-9-9--7h9-9-9-9-9--------------7--7h9-9-9-9-9--7h9-9-9-9-9--7h9-9|
E----------------------------------------------------------------------------------------------|
             pm......|    pm......|    pm......|  pm    pm         pm......|     pm......|   pm   

             x2  Guitar Solo 2
E-----------------b(15)--r14-14----16b(18)---(15)--r14---15-14-12------------------------------|
B--------------|--------------------------------------------------15-14-12-11-15-14-12---------|
G-------------*|-----------------------------------------------------------------------15-12-11|
D-------7-6~--*|-------------------------------------------------------------------------------|
A-9-9-9--------|-------------------------------------------------------------------------------|
E----------------------------------------------------------------------------------------------|
 pm....| 			

E----------------------------------------------------------------------------------------------|
B-15-14-12-------------------------------------------------------------------------------------|
G----------15-12-11-15-12-11-----------------------------------------------------11h12p11------|
D----------------------------14-12-11----------------------------11--12-11-12-14----------14-12|
A-------------------------------------14-13b(14)--r13-13~----14--------------------------------|
E----------------------------------------------------------------------------------------------|

E-------------------------------------------------------12-14----------------12-14-15-14b(15)~-|
B----------------------------------------------12-14-15-------15-14-12-14-15-------------------|
G----------------------11-12----------11-12-14-------------------------------------------------|
D-11----------11-12-14-------11-12-14----------------------------------------------------------|
A----14-13-14----------------------------------------------------------------------------------|
E----------------------------------------------------------------------------------------------|

E-r14-12---------------------------------------------------------------------------------------|
B--------15-14---/10---7-----7-----------------------------------------------------------------|
G------------------------9-7---9-7-6-9-7-6---7-6-----6-----------------------------------------|
D------------------------------------------9-----9-7---9-7-5-9-7-5------------------/9~----9-10|
A------------------------------------------------------------------9-9b(10)--r9-9~-------------|
E----------------------------------------------------------------------------------------------|

E-----------------------------------------------------------------------------12-14------------|
B---------------------------------------10-12-14-12---------10-12-14-12-14-15-------15-14-12-14|
G----9-10-12-10-9---------------9-10-12-------------9-10-12------------------------------------|
D-12--------------12-10-9-10-12----------------------------------------------------------------|
A----------------------------------------------------------------------------------------------|
E----------------------------------------------------------------------------------------------|

E----12-14-15-17-19-17-15-14-15-17-19-21-19-17-19~---------------------------------------------|
B-15-------------------------------------------------|-----------------------------------------|
G----------------------------------------------------|*--------------------------------/9b(11)-|
D----------------------------------------------------|*-4~---7-7-7-6---4-4-4-4-2--4------------|
A----------------------------------------------------|--2~---5-5-5-4---2-2-2-2-0--2------------|
E----------------------------------------------------------------------------------------------|

					x2
E----------------------------------------------------------------------18-17-18-17-15-17-15-13-|
B-----------------------------------------|-------------------------|--------------------------|
G-r9--7\---------------------------------*|-------------------------|--------------------------|
D-------\---4---7-7-7-6---4-4-4-4-2--4---*|--2----------------------|--------------------------|
A-----------2---5-5-5-4---2-2-2-2-0--2----|--0--5---4--2---6--7~----|--------------------------|
E-----------------------------------------------3---2--0---4--5~-------------------------------|

E-15-13-12-13----------------------------------------------------------------------------------|
B-------------17-15-17-------------------------------------------------------------------------|
G----------------------14-12-14----------------------------------------------------------------|
D-------------------------------15-14-15-14-12-14-12-11-12-------------------------------------|
A----------------------------------------------------------13-12-13-12-10-12-------------------|
E----------------------------------------------------------------------------13-12-13-12-10-12-|

E---------------------18-17-15--------------------------------18-17-15-------------------------|
B------------------------------18-17-15-18-17-15-----------------------18-17-15-18-17-15-------|
G------------------------------------------------18-15----14-----------------------------18-15-|
D------------------------------------------------------17--------------------------------------|
A----------------------------------------------------------------------------------------------|
E-10-9-10-9-6-9-5~-----------------------------------------------------------------------------|

E---------18-17-15---------------18-17-15---------------18-17-15---------------18-17-15--------|
B------------------18-17-15-14~-----------18-17-15-14~-----------18-17-15-14~-----------18-17-1|
G----14----------------------------------------------------------------------------------------|
D-17-------------------------------------------------------------------------------------------|
A----------------------------------------------------------------------------------------------|
E----------------------------------------------------------------------------------------------|

E----------17-18--15-17--13-15--12-13--10-12--9-10---------------------------------------------|
B5-14~---|------------------------------------------10-11--8-10--6-8---------------------------|
G--------|------------------------------------------------------------9-10--7-9--6-7-----------|
D--------|----------------------------------------------------------------------------7-8--5-7-|
A--------|-------------------------------------------------------------------------------------|
E----------------------------------------------------------------------------------------------|

E----------------------------------------------------------------------------------------------|
B------------------10-11--8-10--6-8------------------------------------------------------------|
G----------2~------------------------9-10--7-9--6-7--------------------------------------------|
D-3-5--2-3-------------------------------------------7-8--5-7--3-5--2-3------------------------|
A------------------------------------------------------------------------5-7-4-5~--------------|
E----------------------------------------------------------------------------------------------|

E----------------------------------------------------------------------------------------------|
B----------------------------------------------------------------------------------------------|
G----------------------------------------------------------------------------------------------|
D--------------------8--7-----------------------8-----------------------8--7-------------------|
A-5-5-5-5-5-5-5-5-5--6--5--5-5-5-5-5-5-5-5-5-5--6--5-5-5-5-5-5-5-5-5-5--6--5--5-5-5-5-5-5-5-5-5|
E----------------------------------------------------------------------------------------------|
 pm................|      pm..................|   pm..................|     pm.................

E---------22-17----17-13----13----13-------------------------------13-17-13--------------------|
B---------------18-------15----15----10-15-10----10----------10-15----------10-15~-------------|
G---------------------------------------------10----10----10-----------------------------------|
D----7----7\-------------------------------------------12---------------------------2-2---2-2--|
A-5--5----5\------------------------------------------------------------------------0-0---0-0--|
E----------------------------------------------------------------------------------------------|
 ..|
       Fade out
E-------------------------|
B-------------------------|
G-------------------------| end
D-2-2---2-2---2-2---2-2---|
A-0-0---0-0---0-0---0-0---|
E-------------------------|

TABLAURE EXPLANATION
======================

pm..| = Palm mute

p = Pull off

h = Hammer on

b() = bend

A.H. = Artificial Harmonic

/ = Slide up

\ = Slide down

~~~~ = vibrato

|     |
|     |
|*   *| = repeat from * to *
|*   *| 
|     |
Comments