Stratovarius - Reign Of Terror Chords & Tabs

 

Reign Of Terror Chords & Tabs

Stratovarius Chords & Tabs

Version: 1 Type: Tab 0 ratings
1 star 2 stars 3 stars 4 stars 5 stars
comments

Reign Of Terror Tab

                            Music :REIGN OF TERROR
                              Album :Dreamspace

by SErgio Daher - BRAZIL
MAIL:
dtheater@hotmail.com
sergiod@sti.com.br

my page: "Guitar Hero Page"
http://www.geocities/SunsetStrip/Stage/2522/index.htm


 Guitar 1/2 step down!!!
-------------------------
/\/ = Vibrato
/   = Slide Up
ha  = Harmonic
1/2 = bend half step
-------------------------
Intro:
Eb|-------------------------------------------------------------------------|
Bb|-------------------------------------------------------------------------|
Gb|-------------------------------------------------------------------------|
Db|-------------------------------------Ha----------------------------------|
Ab|---8-7----7-------8/7-7---7-5/7/8-7-8/7---7-------8-7---7-5/7/8--7-------|
Eb|-------0----0-0-0-------0---------------0---0-0-0-----0------------------|


Eb|-------------------------------------------------------------------------|
Bb|--------------------|----------------------------------|-----------------|
Gb|-10/\/-12-----------|-10----9-9------9-9--------9-9----|--10-------------|
Db|-10/\/-12---7-8-H.a-|-10----7-7--7-8-7-7--7-----7-7----|--10/\/\---------|
Ab|--8----10--------8--|--8--0-----0--------0--0-0-----0--|---8/\/\---------|
Eb|-------------------------------------------------------------------------|

[ Tab from: http://www.guitartabs.cc/tabs/s/stratovarius/reign_of_terror_tab.html ]
Eb|-------------------------------------------------------------------------|
Bb|----------------------------------|--------------------------------------|
Gb|---12-------10--10-10-------------|--------------------------------------|
Db|---12---5-5-10--10-10-------------|--------------------------------------|
Ab|---10---5-5--8---8--8-----5--8--7-|--------------------------------------|
Eb|--------3-3--------------------------------------------------------------|


Eb|-------------------------------------------------------------------------|
Bb|-------------------------------------------------------------------------|
Gb|-------------------------------------------------------------------------|
Db|---H.a-------------------------------Ha----------------------------------|
Ab|---8-7----7-------8/7-7---7-5/7/8-7-8/7---7-------8-7---7-5/7/8--7-------|
Eb|-------0----0-0-0-------0---------------0---0-0-0-----0------------------|


Eb|-------------------------------------------------------------------------|
Bb|-------------------------------------------------------|-----------------|
Gb|---99------------9---9-9-------------------9-----------|-----------------|
Db|--9-9-9-9-9-9-99-9-9-9-9-10-9-9--9--9-10---9-----9--9--|-----------------|
Ab|--7-7-7---7---7--7-7-7-7--7---7--7--7--7---7--7--7--7--|-----------------|
Eb|-------------------------------------------------------------------------|

End.
Comments