Stratovarius - Hunting High And Low Chords & Tabs

 

Hunting High And Low Chords & Tabs

Stratovarius Chords & Tabs

Version: 2 Type: Tab 0 ratings
1 star 2 stars 3 stars 4 stars 5 stars
comments

Hunting High And Low Tab

Tabs by Pasi, Finland

INFO: These are very simply to play and it's good for training
[ Tab from: http://www.guitartabs.cc/tabs/s/stratovarius/hunting_high_and_low_tab_ver_2.html ]
E---------------------------------------------------
B--0-2-4---5-4-2-2--4-5-4-2-2-0-0-2-0-0---4-2-2-----
G--------1------------------------------1-----------
D---------------------------------------------------
A---------------------------------------------------
E---------------------------------------------------

E---------------------------------------------------
B--4-5-4-2-4---5-4-2-2--4-5-4-2-2-0-0-2-0-0---4-2-2-
G------------1------------------------------1-------
D---------------------------------------------------
A---------------------------------------------------
E---------------------------------------------------

Then play second riff once and once...
Comments