Stratovarius - Forever Chords & Tabs

 

Forever Chords & Tabs

Stratovarius Chords & Tabs

Version: 2 Type: Tab 0 ratings
1 star 2 stars 3 stars 4 stars 5 stars
comments

Forever Tab

   
I HAVE TABBED THIS SONG WITH CHORDS.BUT IF YOU WANT YOU CAN PLAY WITH PLUCKING.HERE ARE
THE PLUCKING OF FOREVER CHORDS.

                       
TUNING:STANDARD E                                CHORDS

                                             Bm:x24432/799777
  Bm       F#m      G        D               F#m:244222 
E|----2---|----2---|----3---|----2---|       G:355433/320002 
B|3-----3-|2-----2-|3-----3-|3-----3-|       D:xx0232/x57775
G|--4-----|--2-----|--4-----|--2-----|       Em:022000
D|--------|--------|--------|0-------|       A:x02220/577655
A|2-------|--------|--------|--------|       F#:244322
E|--------|2-------|3-------|--------|
  Em       A        Bm       F#
E|----0---|----0---|----2---|----2---|
B|0-----0-|2-----2-|3-----4-|2-----2-|
G|--0-----|--2-----|--4-----|--3-----|
D|--------|--------|--------|--------|
A|--------|0-------|2-------|--------|
E|0-------|--------|--------|2-------|

 


                                   Forever

(INTRO)

  Bm   F#m   G     D   Em      A     Bm     F#
E|--------------------------------------------\
B|7-11-9-7-6-4-2-0-----0-2-4-7-6-7-6-4---7-6-4 \
G|-----------------4-------------------4------  \     2X
D|--------------------------------------------  /
A|-------------------------------------------- / 
E|--------------------------------------------/

[ Tab from: http://www.guitartabs.cc/tabs/s/stratovarius/forever_tab_ver_2.html ]
  Bm-----F#m----------G--D---
I stand alone in the darkness
Em------------A-------Bm------F#--
The winter of my life came so fast
Bm--F#m-------------G---D---- 
Memories go back to childhood
Em--------A-------Bm--
To days I still recall
Bm-----F#m---G---D---
Oh how happy was then
Em-----------A------Bm-----------F#--
There was no sorrow there was no pain
Bm------F#m---------G-----D-----
Walking through the green fields
Em-------A-----Bm-- 
Sunshine in my eyes
          Bm---------G----  
I'm still there everywhere
--------D-----------A--- 
I'm the dust in the wind
--------Bm----------G--------D-A- 
I'm the star in the northern sky
        Bm--------G---- 
I never stayed anywhere
--------D-------A---- 
I'm the wind in trees
----------Bm-------G-----D-A- 
Would you wait for me forever? 

(SOLO)
  Bm   F#m   G     D   Em      A     Bm     F#   
E|--------------------------------------------\
B|7-11-9-7-6-4-2-0-----0-2-4-7-6-7-6-4---7-6-4 \
G|-----------------4-------------------4------  \     2X
D|--------------------------------------------  /
A|-------------------------------------------- / 
E|--------------------------------------------/

          Bm---------G----  
I'm still there everywhere
--------D-----------A--- 
I'm the dust in the wind
--------Bm----------G--------D-A- 
I'm the star in the northern sky
        Bm--------G---- 
I never stayed anywhere
--------D-------A---- 
I'm the wind in trees
----------Bm-------G-----D-A- 
Would you wait for me forever? 
----------Bm-------G-----D-A-
Would you wait for me forever?
---------Bm-------G-----D-A--
Will you wait for me forever?
Comments