Stratovarius - Father Time Chords & Tabs

 

Father Time Chords & Tabs

Stratovarius Chords & Tabs

Version: 2 Type: Tab 0 ratings
1 star 2 stars 3 stars 4 stars 5 stars
comments

Father Time Tab

Father Time by Stratovarius

Tune down 1/2 step.

From Niuton Rodrigues Filho.
E-mail:niuton@uol.com.br.

Enjoy It!

INTRO:(Five times)
Eb----------------------------------------------------------------------
Bb----------------------------------------------------------------------
Gb----------3--2--3/5--3--2-------------3--2--3--8--8--8----------------
Db----------3--2--3/5--3--2-------------3--2--3--8--7--8----------------
Ab-5------5-------------------5------5----------------------------------
Eb-3-3333-3-------------------3-3333-3----------------------------------
P.M(---)                      (----)     

While singing(Part 1)
Eb----------------------------------------------------------------------
Bb----------------------------------------------------------------------
Gb----------------------------------------------------------------------
Db--------------------------------------7-------7------7-----7-----7----
Ab--5-------5------5-------5------5-----5--555--5--55--5--5--5--5--5----
Eb--3--333--3--33--3--333--3--33--3------------------------------------- 
P.M  (---)  (--)   (---)   (--)         (---)   (--)    (-)   (-)

While singig (Part 2)
Eb----------------------------------------------------------------------
Bb----------------------------------------------------------------------
Gb----------------------------------------------------------------------
Db--8--10---------------------8--10--------7----------------------------
Ab--6--8-----------------3----6--8---------5----------------------------
Eb-----------6~~~5~~~3~~~1----------------------------------------------

Chorus:
Eb----------------------------------------------------------------------
Bb----------------------------------------------------------------------
Gb----------------------------------------------------------------------
Db--3------------------------------------------------------------3------
Ab--1------3------6-6-6-6-5-5-5-5-----------------6-10-8-6-------1-----3
Eb---------1----------------------8-8-8-8-6-6-6-6----------10-8--------1
P.M              (-------------------------------)

Eb----------------------------------------------------------------------
Bb----------------------------------------------------------------------
Gb----------------------------------------------------------------------
Db--------------------------------------7-------------------------------
Ab--6-6-6-6-5-5-5-5---------------------5-------------------------------
Eb-------------------8-8-8-8-6-6-6-6------------------------------------
P.M(--------------------------------)

Repeat Intro
Repeat Singing
Repeat Chorus
Repeat Intro

[ Tab from: http://www.guitartabs.cc/tabs/s/stratovarius/father_time_tab_ver_2.html ]
Guitar Solo:
Eb----------------------------------------------------------------------
Bb---------------------------------------------13-15-16-15-13-15-13-----
Gb------------------------------------12-14-15--------------------------
Db--10~~------12/13/12--10~~--10/12~~-----------------------------------
Ab--------10------------------------------------------------------------
Eb----------------------------------------------------------------------

Eb---------------------------------ah-----------------------------------
Bb----------------------------ah---12~~---------------------------------
Gb--15-14-12------------------12-----------------13-15-16-15-1315-13----
Db-----------16-13-12~~--10~~-----------12-14-15------------------------
Ab----------------------------------------------------------------------
Eb----------------------------------------------------------------------

Eb----------------------------------------------------------------------
Bb-------------------------------15~~----18b20-18~~16-15-16~------------
Gb--15-14-12------------15~~--------------------------------17-15-14----
Db-----------16-13-12~~------17-------17--------------------------------
Ab----------------------------------------------------------------------
Eb----------------------------------------------------------------------

Eb----------------------------------------------------------------------
Bb----------------------------------------------------------------------
Gb--------------12----14----15-15b17-1514-12~~----------13-15-16-15-13--
Db--17-16~~--12----12----12--------------------12-14-15-----------------
Ab----------------------------------------------------------------------
Eb----------------------------------------------------------------------

Eb-----------------------------14-15-17-15-14---------------------------
Bb--------------------13-15-16----------------16-15-13-15~~-------------
Gb--15-14-12-12-14-15---------------------------------------------------
Db----------------------------------------------------------------------
Ab----------------------------------------------------------------------
Eb----------------------------------------------------------------------

Keyboard Solo:
Eb----------------------------------------------------------------------
Bb----------------------------------------------------------------------
Gb----------------------------------------------------------------------
Db--3------3------6-5--------6--------------3-----3-----------7---------
Ab--1--3---1--3---8-7--10-8--8--10-8-6------1--3--1-3-6-5-----5---------
Eb-----1------1--------8--6------------10-8----1----1-----8-6-----------

Repeat Intro
Repeat Chorus

Well,this is all,I have a golden ear,so I`m sure that`s OK.
Mail me at niuton@uol.com.br

                See Ya!
                Niuton.
Comments