Stratovarius - Eyes Of The World Chords & Tabs

 

Eyes Of The World Chords & Tabs

Stratovarius Chords & Tabs

Version: 1 Type: Tab 0 ratings
1 star 2 stars 3 stars 4 stars 5 stars
comments

Eyes Of The World Tab

 Music :Eyes of the World
 Album :DreamSpace

 Guitar 1/2 step down!!!
-------------------------
/\/ = Vibrato
/   = Slide Up
ha  = Harmonic
1/2 = bend half step
-------------------------
Only Riffs
[ Tab from: http://www.guitartabs.cc/tabs/s/stratovarius/eyes_of_the_world_tab.html ]
intro:
Eb|-------------------------------------------------------------------------|
Bb|-------------------------------------------------------------------------|
Gb|--9------10-----7----9-----5---7----4-----2------9-----10----7-----9-----|
Db|----7-------7-----7----7-----5---5----5-----3------7------7----7-----7---|
Ab|------0-------0-----0----0----0----0----0-----0------0------0----0-----0-|
Eb|-------------------------------------------------------------------------|
                                 dist.                              Pm....
Eb|---------------------------0---------------------------------------------|
Bb|---------------------------0-|-------------------------------------------|
Gb|---5----7-----4-----2------2-|---9-9--10-7-----9-----5-----7-4--2---5--4-|
Db|-----5----5-----5-----3----2-|---7-7---7-7-----7-----5-----5-5--3--------|
Ab|-------0----0-----0-----0--0-|---0-0---0-0-0-0-0-0-0---0-0-0-------------|
Eb|-------------------------------------------------------------------------|
   .......    clean
Eb|---------------0--0---0-0--0--0--0-0--0-0--------------------------------|
Bb|----------|----0---0--0-0--0--2-0--0--2-2--|-------0-1-3-1-0-1-0---------|
Gb|-2--------|----2------2----2--2----2--2-2--|-----------------------------|
Db|----3--2--|----2------3----2--0----2--2-3--|-5/\/\----------------5------|
Ab|----------|----0------0-------0-------0-0--|-5/\/\----------------5------|
Eb|---------------------------------------------3/\/\----------------3------|


by SErgio Daher - BRAZIL
MAIL:
dtheater@hotmail.com
sergiod@sti.com.br

my page: "Guitar Hero Page"
http://www.geocities/SunsetStrip/Stage/2522/
Comments