Stratovarius - Black Diamond Chords & Tabs

 

Black Diamond Chords & Tabs

Stratovarius Chords & Tabs

Version: 1 Type: Tab

Black Diamond Tab

   
                            BLACK DIAMOND
ARTIST: STRATOVARIUS
 ALBUM: VISIONS
     v: vibrato
     h: hamer
     p: pull
     b: bend
THATS IT WITH ALMOST ALL THE SOLO PART


well... this is my last corrected black diamond version yea if you
find any mistake .error ,sin or whatever you want, please mail me
at monarch@mail.internet.com.mx or by this page
thanx , and enjoy it!! because it takes me a lot of time
Luis Jimenex Torres MEXICO CITY





      riff1: intro & corus

|--------------------------------|----------------------------|
|--------------------------------|----------------------------|
|--7---------3--(3)-----5-----7--|----------------------------|
|--7---------3--(3)-----5-----7--|----------------------------|
|--5---------1--(1)-----3-----5--|---5555555555555555331111111|
|--------------------------------|----------------------------|

      Again, i see

|-------------------------------------------------------|
|-------------------------------------------------------|
|--------------------------------------------------7----|
|--------------------------------------------------7----|
|111111133551133333333333333011335555555555555555--5----|
|-------------------------------------------------------|


|-----------------------------------------|
|-----------------------------------------|
|--------3------3-----------3------3------|
|-2------3------3----2------3------3------|
|-1-1111-1-1111-1-11-1-1111-1-1111-1-11---|
|-----------------------------------------|

Inviting me...
|-----------------------------------------------|
|-----------------------------------------------|
|-5-----3-----5-----2----6666-------------------|
|-5-----3-----5-----2--------8888-77------------|
|-3-----1-----3-----0---------------999-8888----|
|-----------------------------------------------|

solo hehe..almost all..im not a virtuosly
      h p   v    v   v       h p    v
|-------------------------------------------------------------|
|--15-17--151715--15-18-17-15--------15-17--151715--15-18-17--|
|-14-------------------------14-12--14------------------------|
|-------------------------------------------------------------|
|-------------------------------------------------------------|
|-------------------------------------------------------------|
[ Tab from: http://www.guitartabs.cc/tabs/s/stratovarius/black_diamond_tab.html ]
   v  v
    h p             h p
|-18-17-15---17-151715----------------18-171817-15----------|
|---------------------18-17-15--------------------181715----|
|-----------------------------17-15-14------------------1715|
|-----------------------------------------------------------|
|-----------------------------------------------------------|
|-----------------------------------------------------------|


  v  p p
|----15-17-18--181715--p-p--------------|--------------------
|-17-----------------181715--p-p--------|--------------------
|--------------------------171514--p p--|-7--2--7--2--3--2--7
|--------------------------------171514-|-7--2--7--2--3--2--7
|---------------------------------------|-5--0--5--0--1--0--5
|---------------------------------------|--------------------



|-----------------------------------------------------------------|
|-5-000-7-000-8-000-5-000-7-000-8-000-10-000-7-000-12-000-10-000--|
|-----------------------------------------------------------------|
|-----------------------------------------------------------------|
|-----------------------------------------------------------------|
|-----------------------------------------------------------------|

            bup&dn
|---------------------------------------------------------------|
|-8-000-7-000-8-000-7-000-5-000-4-000-5/8-8-8/12-12-12/17-17-19-|
|---------------------------------------------------------------|
|---------------------------------------------------------------|
|---------------------------------------------------------------|
|---------------------------------------------------------------|


|------------------------------17/19/20/19/17/19/17--|
|-19/20/19/17---------17/19/20-----------------------|
|------------19-17/19--------------------------------|
|----------------------------------------------------|
|----------------------------------------------------|
|----------------------------------------------------|






  v   h p    v   v     v v  b
|-17--15-17-18-171817-15--18-----------------------------15-18-17-17|
|---18------------------18----18-17--15-17--15-13---17-18-----------|
|-------------------------------------------------------------------|
|-------------------------------------------------------------------|
|-------------------------------------------------------------------|
|-------------------------------------------------------------------|

      v
|-18-17-15--17-15-----15---------------------|
|---------18-----18-17--18-17-15-18-17--15---|
|-------------------------------------18-----|
|--------------------------------------------|
|--------------------------------------------|
|--------------------------------------------|