Stratovarius - Black Diamond Chords & Tabs

 

Black Diamond Chords & Tabs

Stratovarius Chords & Tabs

Version: 1 Type: Bass Tab 0 ratings
1 star 2 stars 3 stars 4 stars 5 stars
comments

Black Diamond Bass Tab

intro                                    verso
|------------------------------------||-------------------------------------|
|-----------------------------------*||------------------------------------*|
|----0------------------------0-----*||------------------------------------*|
|-------------1---1-----3------------||---5*-------3---1*-------3*-------5*-|

coro
|----------------------------------------------------------------------------|
|---------------------------------------------------------------------------*|
|-------------------------------------------------------------------------2-*|
|---5--------1*--------5----------1*--------3---3-------1---1------3---3-----|

verso
|------------------------------------------|
|-----------------------------------------*|
|-----------------------------------------*|
|---5*---------3---1*--------3*-------5*---|

la guitarra hece una wea antes de el solo aki el bajo hace

|-----------------------------------------------|
|-----------------------------------------------|
|----------0---0-----------0---0----------------|
|--0---0-----------0---0------------------------|

verso una sola ves 
[ Tab from: http://www.guitartabs.cc/tabs/s/stratovarius/black_diamond_btab.html ]
|-------------------------------------------------------------|
|-------------------------------------------------------------|
|-------------------------------------------------------------|
|----5*--------3---1*----------3*-------5*--------------------|

solo guitarra y teclado  
|-----------------------------------------------------------|
|-----------------------------------------------------------|
|-----------------------------------------------------------|
|---0000000000000000000000/55555555555555555/0000000000000--|
hasta ke termina los punteos de guitarra y teclado

intro
|----------------------------------------|
|----------------------------------------|
|---0-----------------------------0*-----|
|-----------1---1-------3----------------|

 verso
|---------------------------------------------------------------|
|---------------------------------------------------------------|
|---------------------------------------------------------------|
|---5*---------3---1*---------3*--------5*----------------------|
hasta el final

eso es todo es muy facila la wea de black diamond
ustedes saben cual es mi mail po marcovalenzuela14@hotmail.com 
por consultas
Comments