Stratford 4 - Autopilot Chords & Tabs

 

Autopilot Chords & Tabs

Stratford 4 Chords & Tabs

Version: 1 Type: Tab 0 ratings
1 star 2 stars 3 stars 4 stars 5 stars
comments

Autopilot Tab

   
Stratford 4 – Autopilot 

tabbed by: kates78@hotmail.com


Intro:

e------------------------------------
b-7-7-7-8-10---7-7-5-5-3-3-----------
g------------------------------------
d------------------------------------
a------------------------------------
E------------------------------------

repeat 4 times, on the last time only do the first 5 notes

note: alternative, instead of:
b---7-7-5-5-3-3-, 
you can use:
b---7-7-5-5-----
g-----------7-7-
(they sound the same, whichever is easier)

Verse 1:

D				 Em	
   This world’s too small
D					 Em
   I can’t go anywhere at all now
D				Em
  ‘Cos everything I see
D					Em
   It just reminds me of me 
		D	Em	  
And you… 
		D	Em
And you…

*This pattern continues throughout all the verses, with the first 5 notes of the intro coming in on guitar 2

Chorus:
[ Tab from: http://www.guitartabs.cc/tabs/s/stratford_4/autopilot_tab.html ]
G		   G D	
   Gonna put it in an autopilot
G            G    D
   Close my eyes and just let you drive it
G		   G D	
   Gonna put it in an autopilot
G            G    D
   Close my eyes and just let you drive it, home…

Solo:

pick b fret 7 for a while, then go into:

e----------------------------------------------------------
b-7-7-7-7-7-7-7/8-7-5-5-5-5-5-5-5/7-5-3-3-3-3-3-3-3-3-3-3-3
g----------------------------------------------------------
d----------------------------------------------------------
a----------------------------------------------------------
E----------------------------------------------------------

repeat twice, on the second time play b fret 3 just a few times, then finish w/
b-7-7-8-10

that’s pretty much it, the intro melody and the chords are the same throughout the song,
then it ends like this:

D			  Em
  Do you see my face
D				   Em
  When you close your eyes…

D, Em, G

repeat the last three chords four times, I don’t know how to write out the strumming pattern but
it’s easy to get if you listen to the song. on the last time through slow down on the G
and finish on D.


I hope this is right and I’m not the greatest at writing tabs so hopefully you can understand
this. any questions or comments just email me, thanks.
Comments