Strata - Today Chords & Tabs

 

Today Chords & Tabs

Strata Chords & Tabs

Version: 1 Type: Tab 0 ratings
1 star 2 stars 3 stars 4 stars 5 stars
comments

Today Tab

   
Tuning:  step down, drop D

|-D#
|-A#
|-F#
|-C#
|-G#
|-C#

Intro and Verse done with underdrive and delay (on my pedal the delay is set to 37,
but who knows on other pedals)

I did my best to put the timing above the tab throughout the song, I hope it helps

INTRO

  1   2   3    4   1   2 3 4 
|----------------------------|
|----------------------------|
|----------------------------|
|-7h9---9-10p9---9-7h9-------|
|-0---0---0----0---0---------|
|----------------------------|

  1   2   3    4   1   2 3 4 
|----------------------------|
|----------------------------|
|----------------------------|
|-7h9---9-10p9---9-7h9-------|
|-0---0---0----0---0---------|
|----------------------------|

VERSE
  1   2   3    4   1   2   3   4
|-------------------------------|
|-------------------------------|
|-------------------------------| x7
|-7h9---9-10p9---9-7h9-----X-X--|
|-0---0---0----0---0-------X-X--|
|-------------------------------|

  1   2   3    4   1   2 3 4
|---------------------------|
|---------------------------|
|---------------------------| 
|-7h9---9-10p9---9-7--------|
|-0---0---0----0---0--------|
|---------------------------|

PRE-CHORUS
  1   2   3   4   1   2   3   4   1   2   3   4   1   2   3   4         
|-------------------------0---------------------------------------|
|-------------------------0---------------------------------------|
|-5-------4-----------------------7-------7---7---7-7-7-7-7-7-7-7-|
|-3~------------5-----------------5-------5---5---5-5-5-5-5-5-5-5-|
|-3~------------------------------5-------5---5---5-5-5-5-5-5-5-5-|
|-3~------------------------------5-------5---5---5-5-5-5-5-5-5-5-|

  1   2   3    4   1   2   3   4
|-------------------------------|
|-------------------------------|
|-------------------------------| 
|-7h9---9-10p9---9-7h9-----X-X--|
|-0---0---0----0---0-------X-X--|
|-------------------------------|

  1   2   3    4   1   2 3 4
|---------------------------|
|---------------------------|
|---------------------------| 
|-7h9---9-10p9---9-7b-------|
|-0---0---0----0------------|
|---------------------------|

  1   2   3   4   1   2   3   4   1   2   3   4   1   2   3   4         
|-------------------------0-------------------------------------|
|-------------------------0-------------------------------------|
|-5-------4-----------------------4-------4-------7-7-7-7-7-----|
|-3~------------5-----------------2-------2-------5-5-5-5-5-----|
|-3~------------------------------2-------2-------5-5-5-5-5-----|
|-3~------------------------------2-------2-------5-5-5-5-5-----|
                                                  . . . . .
CHORUS
  1   2   3   4   1     2    3    4   1   2   3   4   1   2   3   4   
|-------------------------------------------------------------------|
|-------------------------------------------------------------------|
|-9-------9---9-9---12-12---12---12---5-------5---5-5---7-7---7---7-|
|-7-------7---7-7---10-10---10---10---3-------3---3-3---5-5---5---5-|
|-7-------7---7-7---10-10---10---10---3-------3---3-3---5-5---5---5-|
|-7-------7---7-7---10-10---10---10---3-------3---3-3---5-5---5---5-|

  1   2   3   4   1     2    3    4   1   2   3   4   1   2   3   4      
|---------------------------------------------------------------------|
|---------------------------------------------------------------------|
|-9-------9---9-9---12-12---12---12---5-------5---5-5-X-4---4-X-4---4-|
|-7-------7---7-7---10-10---10---10---3-------3---3-3-X-2---2-X-2---2-|
|-7-------7---7-7---10-10---10---10---3-------3---3-3-X-2---2-X-2---2-|
|-7-------7---7-7---10-10---10---10---3-------3---3-3-X-2---2-X-2---2-|

  1   2   3   4   1     2    3    4   1   2   3   4   1   2   3   4   
|-------------------------------------------------------------------|
|-------------------------------------------------------------------|
|-9-------9---9-9---12-12---12---12---5-------5---5-5---7-7---7---7-|
|-7-------7---7-7---10-10---10---10---3-------3---3-3---5-5---5---5-|
|-7-------7---7-7---10-10---10---10---3-------3---3-3---5-5---5---5-|
|-7-------7---7-7---10-10---10---10---3-------3---3-3---5-5---5---5-|

  1   2   3   4   1     2    3    4   1   2   3   4   1   2   3   4      
|---------------------------------------------------------------------|
|---------------------------------------------------------------------|
|-9-------9---9-9---12-12---12---12---5-------5---5-5-4-4---4-4-4---4-|
|-7-------7---7-7---10-10---10---10---3-------3---3-3-2-2---2-2-2---2-|
|-7-------7---7-7---10-10---10---10---3-------3---3-3-2-2---2-2-2---2-|
|-7-------7---7-7---10-10---10---10---3-------3---3-3-2-2---2-2-2---2-|

VERSE 2

  1   2   3    4   1   2   3   4
|-------------------------------|
|-------------------------------|
|-------------------------------| x7
|-7h9---9-10p9---9-7h9-----X-X--|
|-0---0---0----0---0-------X-X--|
|-------------------------------|

  1   2   3    4   1   2 3 4
|---------------------------|
|---------------------------|
|---------------------------| 
|-7h9---9-10p9---9-7--------|
|-0---0---0----0------------|
|---------------------------|

PRE-CHORUS
  1   2   3   4   1   2   3   4   1   2   3   4   1   2   3   4         
|-------------------------0-------------------------------------|
|-------------------------0-------------------------------------|
|-5-------4-----------------------4-------4-------7-7-7-7-7-----|
|-3~------------5-----------------2-------2-------5-5-5-5-5-----|
|-3~------------------------------2-------2-------5-5-5-5-5-----|
|-3~------------------------------2-------2-------5-5-5-5-5-----|
                                                  . . . . .
CHORUS
  1   2   3   4   1     2    3    4   1   2   3   4   1   2   3   4   
|-------------------------------------------------------------------|
|-------------------------------------------------------------------|
|-9-------9---9-9---12-12---12---12---5-------5---5-5---7-7---7---7-|
|-7-------7---7-7---10-10---10---10---3-------3---3-3---5-5---5---5-|
|-7-------7---7-7---10-10---10---10---3-------3---3-3---5-5---5---5-|
|-7-------7---7-7---10-10---10---10---3-------3---3-3---5-5---5---5-|

  1   2   3   4   1     2    3    4   1   2   3   4   1   2   3   4      
|---------------------------------------------------------------------|
|---------------------------------------------------------------------|
|-9-------9---9-9---12-12---12---12---5-------5---5-5-X-4---4-X-4---4-|
|-7-------7---7-7---10-10---10---10---3-------3---3-3-X-2---2-X-2---2-|
|-7-------7---7-7---10-10---10---10---3-------3---3-3-X-2---2-X-2---2-|
|-7-------7---7-7---10-10---10---10---3-------3---3-3-X-2---2-X-2---2-|

  1   2   3   4   1     2    3    4   1   2   3   4   1   2   3   4   
|-------------------------------------------------------------------|
|-------------------------------------------------------------------|
|-9-------9---9-9---12-12---12---12---5-------5---5-5---7-7---7---7-|
|-7-------7---7-7---10-10---10---10---3-------3---3-3---5-5---5---5-|
|-7-------7---7-7---10-10---10---10---3-------3---3-3---5-5---5---5-|
|-7-------7---7-7---10-10---10---10---3-------3---3-3---5-5---5---5-|
[ Tab from: http://www.guitartabs.cc/tabs/s/strata/today_tab.html ]
  1   2   3   4   1     2    3    4   1   2   3   4   1   2   3   4      
|---------------------------------------------------------------------|
|---------------------------------------------------------------------|
|-9-------9---9-9---12-12---12---12---5-------5---5-5-4-4---4-4-4-----|
|-7-------7---7-7---10-10---10---10---3-------3---3-3-2-2---2-2-2-5-5-|
|-7-------7---7-7---10-10---10---10---3-------3---3-3-2-2---2-2-2-5-5-|
|-7-------7---7-7---10-10---10---10---3-------3---3-3-2-2---2-2-2-5-5-|
                                                                  . .
  1   2   3   4   1   2   3   4   1   2   3   4   1   2   3   4   
|---------------------------------------------------------------|
|---------------------------------------------------------------|
|-9~-----------------------------\5-----------------------------|
|-7~-----------------------------\3-----------------------------|
|-7~-----------------------------\3-----------------------------|
|-7~-----------------------------\3-----------------------------|

  1   2   3   4   1   2   3   4   1   2   3   4   1   2   3   4   
|---------------------------------------------------------------|
|---------------------------------------------------------------|
|-9~-----------------------------\5-----------------------------|
|-7~----------------------10--9--\3-----------------------------|
|-7~-----------------------------\3-----------------------------|
|-7~-----------------------------\3-----------------------------|

  1   2   3   4   1   2   3    4
|------------------------------------|
|------------------------------------|
|------------------------------------|
|---------9---------------10-9-9--10-|
|-7-7-7-7-7-7-7-7-7-7-7-7-7--7-7--7--|
|-7-7-7-7-7-7-7-7-7-7-7-7-7--7-7--7--|
  . . . . . . . . . . . . .  . .  .

  1   2   3   4   1   2   3   4   
|---------------------------------|
|---------------------------------|
|-------------------------------4-|
|---------5-----------------5-5-3-|
|-3-3-3-3-3-3-3-3-3-3-3-3-3-3-3-3-|
|-3-3-3-3-3-3-3-3-3-3-3-3-3-3-3-3-|
  . . . . . . . . . . . . . . . .

  1   2   3   4   1   2   3    4
|----------------------------------|
|----------------------------------|
|----------------------------------|
|---------9---------------10-9-9---|
|-7-7-7-7-7-7-7-7-7-7-7-7-7--7-7-9-|
|-7-7-7-7-7-7-7-7-7-7-7-7-7--7-7-7-|
  . . . . . . . . . . . . .  . . .
  1   2   3   4   1   2   3   4   
|---------------------------------|
|---------------------------------|
|---------------------------------|
|-3-3-3-3-3-3-3-3-3-3-3-3-3-3-3-3-|
|-3-3-3-3-3-3-3-3-3-3-3-3-3-3-3-3-|
|-3-3-3-3-3-3-3-3-3-3-3-3-3-3-3-3-|

  1   2   3   4    1   2   3   4   
|--------------------------------|
|-8------------------------------|
|---------7----------------------| X3
|---------------10---------------|
|--------------------------------|
|--------------------------------|

  1   2   3   4   1   2   3   4   
|-------------------------------|
|-------------------------------|
|-10------------9---------------| 
|-------------------------------|
|-------------------------------|
|-------------------------------|

  1   2   3   4    1   2   3   4   
|--------------------------------|
|-8------------------------------|
|---------7----------------------| X3
|---------------10//-------------|
|--------------------------------|
|--------------------------------|

  1   2   3   4   1   2   3   4   
|-------------------------------|
|-------------------------------|
|-10------------9---------------| 
|-------------------------------|
|-------------------------------|
|-------------------------------|

CHORUS/OUTRO
  1   2   3   4   1     2    3    4   1   2   3   4   1   2   3   4   
|---------------------------------------------------------------------|
|---------------------------------------------------------------------|
|-9-------9---9-9---12-12---12--------5-------5---5-5---7-7---7---7-7-|
|-7-------7---7-7---10-10---10--------3-------3---3-3---5-5---5---5-5-|
|-7-------7---7-7---10-10---10--------3-------3---3-3---5-5---5---5-5-|
|-7-------7---7-7---10-10---10--------3-------3---3-3---5-5---5---5-5-|
                             .                                    . .

  1   2   3   4   1     2    3    4   1   2   3   4   1   2   3   4      
|---------------------------------------------------------------------|
|---------------------------------------------------------------------|
|-9-------9---9-9---12-12---12---12---5-------5---5-5-X-4---4-X-4---4-|
|-7-------7---7-7---10-10---10---10---3-------3---3-3-X-2---2-X-2---2-|
|-7-------7---7-7---10-10---10---10---3-------3---3-3-X-2---2-X-2---2-|
|-7-------7---7-7---10-10---10---10---3-------3---3-3-X-2---2-X-2---2-|

  1   2   3   4   1     2    3    4   1   2   3   4   1   2   3   4   
|-------------------------------------------------------------------|
|-------------------------------------------------------------------|
|-9-------9---9-9---12-12---12---12---5-------5---5-5---7-7---7---7-|
|-7-------7---7-7---10-10---10---10---3-------3---3-3---5-5---5---5-|
|-7-------7---7-7---10-10---10---10---3-------3---3-3---5-5---5---5-|
|-7-------7---7-7---10-10---10---10---3-------3---3-3---5-5---5---5-|

  1   2   3   4   1     2    3    4   1   2   3   4   1   2   3   4      
|---------------------------------------------------------------------|
|---------------------------------------------------------------------|
|-9-------9---9-9---12-12---12---12---5-------5---5-5-4-4---4-4-4---4-|
|-7-------7---7-7---10-10---10---10---3-------3---3-3-2-2---2-2-2---2-|
|-7-------7---7-7---10-10---10---10---3-------3---3-3-2-2---2-2-2---2-|
|-7-------7---7-7---10-10---10---10---3-------3---3-3-2-2---2-2-2---2-|

  1   2   3   4   1     2    3    4   1   2   3   4   1   2   3   4   
|-------------------------------------------------------------------|
|-------------------------------------------------------------------|
|-9-------9---9-9---12-12---12---12---5-------5---5-5---7-7---7---7-|
|-7-------7---7-7---10-10---10---10---3-------3---3-3---5-5---5---5-|
|-7-------7---7-7---10-10---10---10---3-------3---3-3---5-5---5---5-|
|-7-------7---7-7---10-10---10---10---3-------3---3-3---5-5---5---5-|

  1   2   3   4   1     2    3    4   1   2   3   4   1   2   3   4      
|---------------------------------------------------------------------|
|---------------------------------------------------------------------|
|-9-------9---9-9---12-12---12---12---5-------5---5-5-4-4---4-4-4---4-|
|-7-------7---7-7---10-10---10---10---3-------3---3-3-2-2---2-2-2---2-|
|-7-------7---7-7---10-10---10---10---3-------3---3-3-2-2---2-2-2---2-|
|-7-------7---7-7---10-10---10---10---3-------3---3-3-2-2---2-2-2---2-|

  1   2   3   4   1     2    3    4   1   2   3   4   1   2   3   4   
|-------------------------------------------------------------------|
|-------------------------------------------------------------------|
|-9-------9---9-9---12-12---12---12---5-------5---5-5---7-7---7---7-|
|-7-------7---7-7---10-10---10---10---3-------3---3-3---5-5---5---5-|
|-7-------7---7-7---10-10---10---10---3-------3---3-3---5-5---5---5-|
|-7-------7---7-7---10-10---10---10---3-------3---3-3---5-5---5---5-|

  1   2   3   4   1     2    3    4   1   2   3   4   1   2   3   4      
|---------------------------------------------------------------------|
|---------------------------------------------------------------------|
|-9-------9---9-9---12-12---12---12---5-------5---5-5-4-4---4-4-4---4-|
|-7-------7---7-7---10-10---10---10---3-------3---3-3-2-2---2-2-2---2-|
|-7-------7---7-7---10-10---10---10---3-------3---3-3-2-2---2-2-2---2-|
|-7-------7---7-7---10-10---10---10---3-------3---3-3-2-2---2-2-2---2-|

|--------------------------|
|--------------------------|
|-9~---------------------\-|
|-7~---------------------\-|
|-7~---------------------\-|
|-7~---------------------\-|
Comments