Strata - Just Like Silk Chords & Tabs

 

Just Like Silk Chords & Tabs

Strata Chords & Tabs

Version: 1 Type: Tab 0 ratings
1 star 2 stars 3 stars 4 stars 5 stars
comments

Just Like Silk Tab

This tab is for JUST LIKE SILK,
Tuning is Db, Listen to the song for the exact timing and
technique. This song rocks when playing along with it and is a good
excercise for the pinky, but thats just what i think.
Hope you guys like It,

Please Let me know of any corrections 
or anything i missed or just to let me know this 
tab is good. I am always looking to improve,
Thanks 

andrew_bunde@dell.com


Intro Db Tuning
E|------------------------------------|
B|------------------------------------|
G|------------------------------------|
D|--8-7-10-8-7-8---7-8-7-5-7-(7)trem--|
A|0-0-0-0--0-0-0-0-0-0-0-0-0--0-------|
D|------------------------------------|


E|----------------------------------|
B|----------------------------------|
G|----------------------------------|
D|--8-7-10-8-7-8---7-8-7-5^---------|
A|0-0-0-0--0-0-0-0-0-0-0------------|
D|----------------------------------|


Verse 1 & 2

Palm Muting****--- Listen To song for 
the weird technique of hitting the A
string in this riff while muting. On verse 2 
There is a pick slide & sound effects for the first 2 measures
and the first measure played is not palm muted.

E|----------------------------------|
B|----------------------------------|
G|----------------------------------|
D|--8-7-10-8-7-8---7-8-7-5-7-(7)trem--|
A|0-0-0-0--0-0-0-0-0-0-0-0-0--0-------|
D|----------------------------------|
[ Tab from: http://www.guitartabs.cc/tabs/s/strata/just_like_silk_tab.html ]
E|----------------------------------|
B|----------------------------------|
G|----------------------------------|
D|--8-7-10-8-7-8---7-8-7-5^-----------|
A|0-0-0-0--0-0-0-0-0-0-0--------------|
D|----------------------------------|


Chorus- Let -A- string Ring throughout the cool riff.

E|-------------------------------------------------|
B|-------------------------------------------------|
G|55555--33333-------------------------------------|
D|55555--33333----8-7-10-8-7-8---7-8-7-5-7-(7)trem-|
A|33333--11111-00-0-0-0--0-0-0-0-0-0-0-0-0--0------|
E|-------------------------------------------------|

E|----------------------------------|
B|----------------------------------|
G|-------------------------------- -|
D|---8-7-10-8-7-8---7-8-7-5^--------|
A|00-0-0-0--0-0-0-0-0-0-0-----------|
D|----------------------------------|


Interlude Riff- This riff is palm muted the first few times,
and the last note is bent on the last time of playing palm muting.
Dont let the transition from this riff to the original riff fool you.
Just listen really closely and then turn up and jam.

E|----------------------------------|
B|----------------------------------|
G|----------------------------------|
D|--8-7-10-8-7-8---7-8-7-10-8-7-8---|
A|0-0-0-0--0-0-0-0-0-0-0-0--0-0-0---|
D|----------------------------------|

Ending-extremely fast picking w/chorus effect

E|-8---7--6--5------------------------|
B|-10--9--8--7------------------------|
G|------------------------------------|
D|------------------------------------|
A|------------------------------------|
E|------------------------------------|
Comments