Strata - I Will Breathe Fire Chords & Tabs

 

I Will Breathe Fire Chords & Tabs

Strata Chords & Tabs

Version: 1 Type: Tab 0 ratings
1 star 2 stars 3 stars 4 stars 5 stars
comments

I Will Breathe Fire Tab

Strata: I will breathe fire
Tabbed by: tribalwarrior85

tuning: drop C#

Intro- Strum these chords, listen to song to get rythm right
d#  [-----------------]
a#  [-----------------]
f#  [--8----10--------]
c#  [--8----10--------]
g#  [--8-----8--------]
C#  [--8-----8--------]

Leading into the chorus riff after the intro and the verses, it's just 4 palm mutes 
with your fret hand over the 8th fret.

Chorus-
d#  [----------------------------------------------]
a#  [----------------------------------------------]
f#  [--11--12---10---11---12---10--9-10-9-10--x-0--]
c#  [---x---x---10----x----x----x--x--x-x--x--x-0--]
g#  [---9--10----8----9---10----8--7--8-7--8--x-0--]
C#  [------------8----------------------------x-0--]

Leading into the 2nd verse there's a little riff that goes:
d#  [--------------------------]
a#  [--------------------------]
f#  [---7-9b-6---7-9-11b-6-----]
c#  [--------------------------]
g#  [--------------------------]
C#  [--------------------------]

Verse- strum these chords
d#  [---------------------]
a#  [---------------------]
f#  [---7---9---6---------]
c#  [---x---x---x---------]
g#  [---5---7---4---------]
C#  [---------------------]
[ Tab from: http://www.guitartabs.cc/tabs/s/strata/i_will_breathe_fire_tab.html ]
Bridge-yet again, strum these chords
d#  [--------------------------------------]
a#  [--------------------------------------]
f#  [---12-11-10--9------------------------]
c#  [---10--9--8--7------------------------]
g#  [---10--9--8--7------------------------]
C#  [---10--9--8--7------------------------]

at the end of the bridge there's this little run during the chorus:

f#  [--11-11-11--12-14-12-14-15-14--12-11-12----------------------]
c#  [---x--x--x---x--x--x--x--x--x---x--x--x----------------------]
g#  [---9—-9--9--10-12-10-12-13-12--10--9-10----------------------]
C#  [-------------------------------------------------------------]

Then:

f#  [--11-11-11--12-14-12-14-15-14--17--17-17---------------------]
c#  [---x--x--x---x--x--x--x--x--x---x---x--x---------------------]
g#  [---9--9--9--10-12-10-12-13-12--15--15-15---------------------]
C#  [-------------------------------------------------------------]

f# [--10-9-10-9--x-x-x-x-]
c# [---x-x--x-x--x-x-x-x-] 
g# [---8-7--8-7--x-x-x-x-]
C# [---------------------]

end on
f# [--0-------------------]
c# [--0-------------------]
g# [--0-------------------]
C# [--0-------------------]

Any questions or comments? email me at tribalwarrior85@hotmail.com

Comments