Strapping Young Lad - Devour Chords & Tabs

 

Devour Chords & Tabs

Strapping Young Lad Chords & Tabs

Version: 1 Type: Tab 0 ratings
1 star 2 stars 3 stars 4 stars 5 stars
comments

Devour Tab

   
Strapping Young Lad - Devour

C G C F A D

----------------------
----------------------
----------------------  x2 
--10-/12--------------
--8--/10--------------
----------------------


---------------------------------------
---------------------------------------
---------------------------------------  x4
--10-/12-12-12---10-/12-12--12-/13--13-
--8--/10-10-10---8--/10-10--10-/11--11-
---------------------------------------



--------------------------
--------------------------
--------------------------  x8
--------------------------
--3h5-5-5---3h5-5--5/6--6-
--3h5-5-5---3h5-5--5/6--6-



---------------------------
---------------------------
-----6----------4----------  x2
---------------------------
-----4----------2----------
--3----------3-------------



--------------------------
--------------------------
--------------------------  x8
--------------------------
--3h5-5-5---3h5-5--5/6--6-
--3h5-5-5---3h5-5--5/6--6-



---------------------------
---------------------------
-----6----------4----------  x2
---------------------------
-----4----------2----------
--3----------3-------------


[ Tab from: http://www.guitartabs.cc/tabs/s/strapping_young_lad/devour_tab.html ]
---------------------------------------------
---------------------------------------------
-----6----------------------4----------------  x2
---------------------------------------------
-----4----6p5---3p2---------2----6p5---3p2---
--3-----------0-----0--3-------------0-----0-



----------------------------
----------------------------
----------------------------  x16
----------------------------
--6p5---3p2-----6p5---3p2---
------0-----0-------0-----0-



------------------------
------------------------
------------------------  x16 
------------------------
------------------------
--1-1-1---1---1-1-1-----



----------------------------
----------------------------
----------------------------  x16
----------------------------
--6p5---3p2-----6p5---3p2---
------0-----0-------0-----0-



---------------------------
---------------------------
-----6----------4----------  x2
---------------------------
-----4----------2----------
--3----------3-------------



---------------------------------------------
---------------------------------------------
-----6----------------------4----------------  x2
---------------------------------------------
-----4----6p5---3p2---------2----6p5---3p2---
--3-----------0-----0--3-------------0-----0-



--------------------------
--------------------------
--------------------------  x8
--------------------------
--3h5-5-5---3h5-5--5/6--6-
--3h5-5-5---3h5-5--5/6--6-
Comments