Stranglers - Hangin Around Chords & Tabs

 

Hangin Around Chords & Tabs

Stranglers Chords & Tabs

Version: 1 Type: Tab 0 ratings
1 star 2 stars 3 stars 4 stars 5 stars
comments

Hangin Around Tab

Song:Hangin' Around
Band:The Stranglers
Tabbed By:Harry Christian
Type:Guitar Tab

Intro
e -------------------------------------
B -------------------------------------
G -------------------------------------
D -------------------------------------        play it 6 times
A -7-7-7--7-7-7-10-10-10-10-5-5-5-5----    then the words come in
E -5-5-5--5-5-5-8--8--8--8--3-3-3-3----


Verse
e -------------------------------------
B -------------------------------------
G -------------------------------------
D -------------------------------------       play it 8 times 
A -7-7-7--7-7-7-10-10-10-10-5-5-5-5----    
E -5-5-5--5-5-5-8--8--8--8--3-3-3-3----

Interlude
e -------------------------------------
B -------------------------------------
G -------------------------------------
D -------------------------------------       play once
A -7----8----10------------------------    
E -5----3----8-------------------------
   ^    ^    ^ hold all these notes


Chorus
e -------------------------------------
B -------------------------------------
G -------------------------------------       play it 6 times 
D -7-7-7--7-7-7-10-10-10-10-5-5-5-5----    
A -5-5-5--5-5-5-8--8--8--8--3-3-3-3----
E -------------------------------------

Interlude 2
e -------------------------------------
B -------------------------------------
G -------------------------------------       play once
D -7----8----10---12-------------------    
A -5----3----8----10-------------------
E -------------------------------------  
   ^    ^    ^     ^hold all these notes

Verse
e -------------------------------------
B -------------------------------------
G -------------------------------------
D -------------------------------------       play it 8 times 
A -7-7-7--7-7-7-10-10-10-10-5-5-5-5----    
E -5-5-5--5-5-5-8--8--8--8--3-3-3-3----

Interlude
e -------------------------------------
B -------------------------------------
G -------------------------------------
D -------------------------------------       play once
A -7----8----10------------------------    
E -5----3----8-------------------------
   ^    ^    ^ hold all these notes

[ Tab from: http://www.guitartabs.cc/tabs/s/stranglers/hangin_around_tab.html ]
Chorus
e -------------------------------------
B -------------------------------------
G -------------------------------------       play it 6 times 
D -7-7-7--7-7-7-10-10-10-10-5-5-5-5----    
A -5-5-5--5-5-5-8--8--8--8--3-3-3-3----
E -------------------------------------

Interlude 2
e -------------------------------------
B -------------------------------------
G -------------------------------------       play once
D -7----8----10---12-------------------    
A -5----3----8----10-------------------
E -------------------------------------  
   ^    ^    ^     ^hold all these notes

SOLO
E--5-7-8p7p5-----------------------------------------------------------|
B------------5-7-7^7p5-------------------------------------------------|
G----------------------7-5h7p5-4---------7-5----5---5-5--5-------------|
D---------------------------------5-5s7-------7---7--------5-5--5-5s7--| play 3 times
A----------------------------------------------------------------------|
E----------------------------------------------------------------------|

E--5-7-8p7p5-------------------------------------------------------------|
B------------5-7-7^7p5----------------------------5-7-7^7p5---5-7-7^7p5--|
G----------------------7-5h7p5-4--------4-5-4-5-7-----------7------------|
D---------------------------------5-5s7----------------------------------| 
A------------------------------------------------------------------------|
E------------------------------------------------------------------------|

E---3h5p3--------------------------3h5p3----------------------------|
B---------0---0-0-1-1-1s3--1-0--------------------------------------|
G------------------------------2-----------------0-0-0h2--0---------|
D----------------------------------------4---4-4------------4-2-----| play twice
A-------------------------------------------------------------------|
E-------------------------------------------------------------------|

E-----------------------------------|
B--------------1-3-3^3p1------------|
G----------0-2-----------2-0-0h2p0--|
D------0-2--------------------------| play twice
A--0h3------------------------------|
E-----------------------------------|

and thats it...have fun.


Comments