Strangekrew - Flowers Chords & Tabs

 

Flowers Chords & Tabs

Strangekrew Chords & Tabs

Version: 1 Type: Bass Tab 0 ratings
1 star 2 stars 3 stars 4 stars 5 stars
comments

Flowers Bass Tab

   
FLOWERS
strangekrew

INTRO
   C                
G|-------------------|
D|-------------------|
A|-3-3-3333-5-3-2-3--|
E|-------------------|


VERSE
   C                 D                 Am                C 
G|-------------------------------------------------------------------------|
D|-------------------------------------7-7-7777-9-7-6-7--------------------|
A|-3-3-3333-5-3-2-3--5-5-5555-7-5-4-5--------------------3-3-3333-5-3-2-3--|
E|-------------------------------------------------------------------------|

REFRAIN
   G           D    C       D
G|-----------------------------------|
D|-----------------------------------| (2 times)
A|-----------3-5555-3-3-3-3-5-5-5-5--|
E|-3-3-333-5-------------------------|


CHORUS
   G       D       Am      D       Am      C       G       
G|------------------------------------------------------------------|
D|------------------------------------------------------------------|
A|---------5-5-5-5---------5-5-5-5---------3-3-3-3------------------|
E|-3-3-3-3---------5-5-5-5---------5-5-5-5---------3-3-3-3-5-3-2-3--|
[ Tab from: http://www.guitartabs.cc/tabs/s/strangekrew/flowers_btab.html ]
   G       D       Am      D       Am      C
G|---------------------------------------------------|
D|---------------------------------------------------|
A|---------5-5-5-5---------5-5-5-5---------3-3-3-3---|
E|-3-3-3-3---------5-5-5-5---------5-5-5-5-----------|

   G       D       C
G|-----------------------------------|
D|-----------------------------------|
A|---------5-5-5-5-3-3-3-3-3-3-3-3---|
E|-3-3-3-3---------------------------|


CODA
   G       D       Am      D       
G|----------------------------------|
D|----------------------------------| (2 times)
A|---------5-5-5-5---------5-5-5-5--|
E|-3-3-3-3---------5-5-5-5----------|

   Am      C       G       
G|----------------------------------|
D|----------------------------------| (2 times)
A|---------3-3-3-3------------------|
E|-5-5-5-5---------3-3-3-3-5-3-2-3--|

   Am      C        G       
G|------------------------------------------------------|
D|------------------------------------------------------|
A|----------3-3-3-3---------5-5-5-5-3-3-3-3-3-3-3-3-----|
E|-5-5-5-5----------3-3-3-3-------------------------5~--|


PATTERN:
intro 8x
verse 2x
refrain
chorus
intro 2x
verse
refrain
chorus
intro 8x
coda


bass tab by ernie and Kelly Ty

this is 100% correct.
for questions, e-mail me at Angelohssa@hotmail.com
Comments