Strait Up - Angels Son Chords & Tabs

 

Angels Son Chords & Tabs

Strait Up Chords & Tabs

Version: 8 Type: Tab 0 ratings
1 star 2 stars 3 stars 4 stars 5 stars
comments

Angels Son Tab

   
                               "Angel's Son" by Strait Up

Tuning: 1)Drop low E to d
        2)Raise b to d
        3)Raise high e to g

Intro:

Guitar 1
g|--------0----------------|-------0-----------0-----[------0-----0----0----       ]
d|--------0-----------0----|-------0-----------0-----[------0-----0----0---- Play  ]
g|--------5-----------5----|-------5-----------5-----[------5-----5----5----       ]
d|-----0-----0-----0-----0-|----0-----0-----0-----0--[---0-----0----0----0-- Twice ]
a|---3----------3----------|-------------------------[----------------------       ]
D|-------------------------|--3----------5-----------[-6--------------------       ]

Guitar 2 W/ Wah (Second Time Intro is Played)
g|-------------------------|-------------------------|----------------------|
d|-------------------------|-------------------------|----------------------|
g|-------------------------|-------------------------|----------------------|
d|-------------------------|-------------------------|----------------------|
a|---5~~~~~~~--------------|------------3~~~~~~~-----|----------------------|
D|-------------------------|--3~~~~~~~---------------|-6~~~~~~~-------------|

Verse:

Guitar 1 - Acoustic        Guitar 2 - Electric
g|----------------------------------------------------------------------------|
d|--------0-0-0-0-0-0-------0-0-0-0-0-0-0~----0-0-0-0-0-0-------0-0-0-0-0-----|
g|--------5-5-5-5-4-2-------2-2-2-2-0-2-3~----3-3-3-3-2-0-------2-2-2-2-0-2---|
d|---0-0---------------4-4--------------5-5----------------4-4------------4---|
a|---0-0---------------4-4--------------5-5----------------4-4----------------|
D|---0-0---------------4-4--------------5-5----------------4-4----------------|

PreChorus:

Guitar 1 - Acoustic Chorus
[ Tab from: http://www.guitartabs.cc/tabs/s/strait_up/angels_son_tab_ver_8.html ]
Guitar 2
g|----------------------------------------------------------------------------|
d|----------------------------------------------------------------------------|
g|---7~~~~~~~~~~~~~~~~~~~~~------------5--5~~~~~~~~~~~~~--3--3~~~~~~~~~~~~~~--|
d|----------------------------------------------------------------------------|
a|---5~~~~~~~~~~~~~~~~~~~~~------------3--3~~~~~~~~~~~~~--1--1~~~~~~~~~~~~~~--|
D|----------------------------------------------------------------------------|

g|------------------------------------------------------|
d|------------------------------------------------------|
g|---5~~~~~~~~~~~~~~~~~~~~~-----7~~~~~~~~~~~~~~~~~~~~---|
d|------------------------------------------------------|
a|---3~~~~~~~~~~~~~~~~~~~~~-----5~~~~~~~~~~~~~~~~~~~~---|
D|------------------------------------------------------|

Chorus:

Guitar 1
g|---[0--0-0--0--0-0--0]--[-----------------]-------------------|  Chorus goes: Section A
d|---[0--0-0--0--0-0--0]--[0--0-0--0--0-0--0]-------------------|               Section A
g|---[5--5-5--5--5-5--5]--[3--3-3--3--3-3--3]-------------------|               Section B
d|---[0--0-0--0--0-0--0]--[0--0-0--0--0-0--0]-------------------|               Section B
a|---[-----------------]--[5--5-5--5--5-5--5]-------------------|               Section A
D|---[----Section A----]--[----Section B----]-------------------|               Section B
                                                               Section A
                                                               Section b

Song Order:
Intro
Verse
PreChorus
Chorus
Verse
PreChorus
Chorus
Chorus
Intro

This has to be the hardest song ever to tab, so forgive me for
any mistakes.  I would say that it's a good 98% correct however.
Make sure the tuning is done correctly, and it sounds very nice.
This is a great song, so I hope this tab does it justice.
Send corrections to Virii_116@Hotmail.com
[Poor Andy is Pimp]                               -Sean Rippen-
Comments