Strait Up - Angels Son Chords & Tabs

 

Angels Son Chords & Tabs

Strait Up Chords & Tabs

Version: 2 Type: Tab 0 ratings
1 star 2 stars 3 stars 4 stars 5 stars
comments

Angels Son Tab

This song is easy... I'm 99% sure this tab is correct....If it isn't it sounds a hell of alot like it ;)!
*=repeat

Intro.
*---------------------*---0
 -------0----0---0-0-0 ---0
 ------6----6---6-6-6- ---6
 -----7----7---7------ ---7
 ----6----6---6------- ---6
*---------------------*---0
Repeat the first part of Intro twice, then strum second part once slowly!

[ Tab from: http://www.guitartabs.cc/tabs/s/strait_up/angels_son_tab_ver_2.html ]
Verse 1(Repeat Twice):
-------0-0-0-0-0-----0-0-0-0-0-----0-0-0-0-0-0
-------7-7-7-7-7-----7-7-7-7-7-----7-7-7-7-7-7
-------6-6-6-6-6-----6-6-6-6-6-----6-6-6-6-6-6
----2-2-----------2-2-----------2-2-----------
----2-2-----------2-2-----------2-2-----------
----2-2-----------2-2-----------2-2-----------

Pre Chorus(Repeat 3 times):
----0-----0-----0----
----0-----0-----0----
----6-----6-----6----
----7-----7-----7----
----6-----6-----6----
----0-----0-----0----

Chorus(Repeat 3 times):
----0----0----0---
----6----6----6---
----7----7----7---
----6----6----6---
----0----x----0---
----0----x----0---


That's it...easy, huh? ;)
Well... you need the song structure, don't you?


Intro.
Verse 1
Pre Chorus
Chorus
Verse 1
Pre Chorus
Chorus x 2
Outro ( Same as Intro. but played slower)


That's all, I encourage everyone to buy the tribute album, Strait-Up, and I thank you for 
viewing my tab.


James Lynn Strait
R.I.P.
1968-1998
Comments