Straight George - Shes Gonna Leave You With A Smile Chords & Tabs

 

Shes Gonna Leave You With A Smile Chords & Tabs

Straight George Chords & Tabs

Version: 1 Type: Tab 2 ratings
1 star 2 stars 3 stars 4 stars 5 stars
comments

Shes Gonna Leave You With A Smile Tab

   
**play this with a CAPO ON FRET 2**


Tab for the verses:   (h = hammer-on)

     (Dsus2)
E---------------0---------------0----------------0--------
B-----------3-----3---3-----3-----3---3------3-----3---3--
G---------2---2-----2-----2---2-----2------2---2-----2----
D----0--0---------------0----------------0----------------
A-0h2-----------------------------------------------------
E---------------------------------------------------------
     Intro..              at first she's....

  (G/C)         (Bm)           (A)  
E--------0---------------------------------------
B------3---3----------3--------------2-----------
G----0--------0-----4---4---4------2---2---2-----
D-----------------4-------4------2-------2-------
A--3------------2--------------0-----------------
E------------------------------------------------
  like she'll...                  like it's..

  (G)               (A)              (Dsus2)
E-----------------------------------------0---------
B---------0--------------2--------------3---3-------
G-------0---0----------2---2---2------2-------------
D-----0----------0---2-------2------0------------0-0
A-------------0h2--0--------------------------0h2---
E--3------------------------------------------------
  out of...          then she'll..



(Full lyrics)

Verse 1:
[ Tab from: http://www.guitartabs.cc/tabs/s/straight_george/shes_gonna_leave_you_with_a_smile_tab.html ]
Dsus2                               G/C
At first she's gonna come on strong
                      Bm            A
Like she'll love you all night long
                 G           A
Like it's going out of style
                              Dsus2
Then she'll leave you with a smile

Verse 2:
You're gonna give her all your heart
Then she'll tear your world apart
You're gonna cry a little while
Still she'll leave you with a smile


Chorus:
         Bm
Well you can't help but wonder
         G
Why you can't help but love her
         D
But you can't help but love her
    Bm                    G
And all that hurtin' was more than worth it
      A                        A  G  D/F#  A (going into verse 3)   
It's written all over your face


Verse 3:
One day you'll pass her on the street
With that guy you used to be
She'll say hello and walk on by
Then she'll leave you with a smile


Instrumental: (same progression as the verses)


CHORUS


End part after last chorus: (repeats)
    G
Oh she's gonna love you
A                             Bm  A  Bm
She's gonna leave you with a smile



Chords:
A   =   x02220
Bm  =   x24432(bar chord) or xx4432
D   =   xx0232
Dsus2=  xx0230
D/F#=   200232 (hold down bottom string with thumb)
G   =   320003  
G/C =   x30030
Comments