Story Of The Year - We Dont Care Anymore Chords & Tabs

 

We Dont Care Anymore Chords & Tabs

Story Of The Year Chords & Tabs

Version: 1 Type: Tab 0 ratings
1 star 2 stars 3 stars 4 stars 5 stars
comments

We Dont Care Anymore Tab

   
Band: Story of the Year
Song: We don't care anymore
Tabbed by: David Maillet

Guitar 1: Standard tunning
Guitar 2: Drop D tunning
Guitar 3: Standard tunning
        

This is a new song which will be on their new album released October 11th.
You can listen to the song on www.myspace.com/storyoftheyear


*: palm mute
/: slide up
\: slide down

                  Intro: 

Guitar 1 (0:00)

e|----------------4-----------------------|
B|----4-6-----------4-----4-6-------------|
G|----------------------------------------|
D|--3-----3-------------3-----3--1h3h4----|
A|----------4-4-4-------------------------|
E|----------------------------------------|

Guitar 2: (0:08)

e|------------|--Repeat----|
B|------------|------------|
G|------------|------------|
D|-3-3-1------|-1-3-1-1-3--|
A|-3-3-1------|-1-3-1-1-3--|
D|-3-3-1-14\--|-1-3-1-1-3--|
   * * *

Guitar 1: (0:09 to 0:19)
      Repeat
e|------------|
B|------6-----|
G|--3-5---5---|
D|------------|
A|------------|
E|------------|

Guitar 3: (0:15)

e|-----4-3----|
B|-6-4-----4--|
G|------------|
D|------------|
A|------------|
E|------------|


                  Verse:

Guitar 2: 

(0:19)
Repeat: 3x

e|-----------------------------------------------|
B|-----------------------------------------------|
G|-----------------------------------------------|
D|-3333-3333-3333-3333-3333-3333--8p6p5---6------|
A|-3333-3333-3333-3333-3333-3333--------6---6----|
D|-3333-3333-3333-3333-3333-3333-----------------|
   **** **** **** **** **** ****

(0:34)

e|-----------------------------------------------|
B|-----------------------------------------------|
G|-----------------------------------------------|
D|-3333-3333-3333-3333--8p6p5---8p6p5---6p5------|
A|-3333-3333-3333-3333--------6-------6-----6----|
D|-3333-3333-3333-3333---------------------------|
   **** **** **** **** 


Guitar 1:

(0:29)

e|--------------|
B|--------------|
G|-10p8-8-10----|
D|--------------|
A|--------------|
E|--------------|


                  Chorus

Guitar 2: 

(0:39)

e|--------------|
B|--------------|
G|-6-5-10-8-----|
D|-6-5-10-8-----|
A|-4-3-8--6-----|
D|--------------|

End of chorus:

(0:55)

e|----------------------|
B|----------------------|
G|-10-12-13-12----------|
D|-10-12-13-12-6-5------|
A|-8--10-11-11-6-5------|
D|-------------6-5------|



                Verse 2:

(0:58)

e|----------------4-----------------------|
B|----4-6-----------4-----4-6-------------|
G|----------------------------------------|
D|--3-----3-------------3-----3-----------|
A|----------4-4-4---------------4---------|
E|----------------------------------------|

e|--------------------------------------------------|
B|--------------------------------------------------|
G|--------------------------------------------------|
D|------3333-3333-3333-3333-3333-3333--8p6p5---6----|
A|------3333-3333-3333-3333-3333-3333--------6---6--|
D|-14\--3333-3333-3333-3333-3333-3333---------------|
        **** **** **** **** **** ****

e|-----------------------------------------------|
B|-----------------------------------------------|
G|-----------------------------------------------|
D|-3333-3333-3333-3333--8p6p5---8p6p5---6p5------|
A|-3333-3333-3333-3333--------6-------6-----6----|
D|-3333-3333-3333-3333---------------------------|
   **** **** **** ****

[ Tab from: http://www.guitartabs.cc/tabs/s/story_of_the_year/we_dont_care_anymore_tab.html ]
Repeat Chorus (1:18)


                      Interlude:

(1:37)

Guitar 2:

e|--Repeat----|
B|------------|
G|------------|
D|-1-3-1-1-3--|
A|-1-3-1-1-3--|
D|-1-3-1-1-3--|

Guitar 1:

      Repeat
e|------------|
B|------6-----|
G|--3-5---5---|
D|------------|
A|------------|
E|------------|


(1:47)

Guitar1:
      
e|-----------------------------------------------------|
B|---------------------13-13-11----11-13-11------------|
G|-/12h13p12--13h15p13----------13----------13-12-10---|
D|-----------------------------------------------------|
A|-----------------------------------------------------|
E|-----------------------------------------------------|

(1:51)

Guitar 1: (no distortion)
     
e|------------------------------------------------------|
B|------------------------------------------------------|
G|--------------------------------------------13-12-----|
D|---11-10--8-6-8----pause------11-10--8-6-8--------10--|
A|-8--------------------------8-------------------------|
E|------------------------------------------------------|

Guitar 2:

      
e|----11-----------------13-11----------------11--------|
B|-------8---------------------8-----------------8------|
G|-12------8------pause------------pause----12----------|
D|------------------------------------------------------|
A|------------------------------------------------------|
D|------------------------------------------------------|

(2:11)

      
e|-----Repat 6x---|-----------------------------|
B|----------------|-----------------------------|
G|-------3p1p0----|-----------------------------|
D|-333-1-------1--|-333-1-333-1-333-1-333-1-3---|
A|-333-1----------|-333-1-333-1-333-1-333-1-3---|
D|-333-1----------|-333-1-333-1-333-1-333-1-3---|
   *** * * * * *

(2:22)
       
e|-----Repat 8x---|--------------------------|
B|----------------|--------------------------|
G|-------3p1p0----|--8--3p1p0---3p1p0--------|
D|-333-1-------1--|--8--------1-------1--5---|
A|-333-1----------|--6-------------------5---|
D|-333-1----------|----------------------5---|

(2:37)

Accoustic part : 

    C#  C   F  D#
e|--4---3---8---6-------|
B|--6---5---10--8-------|
G|--6---5---10--8-------|
D|--6---5---10--8-------|
A|--4---3---8---6-------|
E|----------------------|


Repeat Chorus: (2:47)


Guitar 1:

(2:57)
      
e|----Repeat-3x---|--Repeat 2x-|-Repeat-2x-----|------------------|
B|----------------|------------|---------------|------------------|
G|-/13-12-10------|-12h13h15---|-/15-13-12-----|-/15-13-12-13-----|
D|-----------13---|------------|-----------13--|--------------13--|
A|----------------|------------|---------------|------------------|
E|----------------|------------|---------------|------------------|


Guitar 2:

(3:14)

e|-------|
B|-------|
G|-------|
D|-6-5---|
A|-6-5---|
D|-6-5---|


(3:16)

e|--Repeat----|
B|------------|
G|------------|
D|-1-3-1-1-3--|
A|-1-3-1-1-3--|
D|-1-3-1-1-3--|


Guitar 1:
                      
     Repeat
e|------------|
B|------6-----|
G|--3-5---5---|
D|------------|
A|------------|
E|------------|



             Ending:

(3:26)

Guitar 2:

e|---------------------------|
B|---------------------------|
G|---------------------------|
D|-333-1-333-1-333-1-333-1-3-|
A|-333-1-333-1-333-1-333-1-3-|
D|-333-1-333-1-333-1-333-1-3-|
Comments