Story Of The Year - Until The Day I Die Chords & Tabs

 

Until The Day I Die Chords & Tabs

Story Of The Year Chords & Tabs

Version: 7 Type: Tab 0 ratings
1 star 2 stars 3 stars 4 stars 5 stars
comments

Until The Day I Die Tab

Story of the Year
Until the Day I Die
Page Avenue (2003)
Tabbed by: blinkguitarist5      

2 Guitars: Both Standard Tuning
Figure Out The rhythm by listening to the CD...its' not that hard.

...-Palm Mute
\-Slide
h-hammer on
p-Pull off
*-let ring out
Intro 1:

Guitar 1 (Little Distortion)
|---------------------------------------------------------------|
|-----------10-------------------10-----------------------------|
|-----7---7-----7---7-----7---7-----7---7-----------------------|Repeat until
|--9----9---------9---------9---------9-------------------------|  Intro 2
|---------------------------------------------------------------|
|---------------------------------------------------------------|
   ^palm mute every note except on the tenth fret

Guitar 2 (Clean)
|--3------5------7----------------------------------------------|
|--3------5------7----------------------------------------------|
|--4------6------8----------------------------------------------|Repeat until
|--5------7------9----------------------------------------------|  Intro 2
|--5------7------9----------------------------------------------|
|--3------5------7----------------------------------------------|
   *      *      *

Intro 2:

Guitar 1
|--10---------9---------5---------------------------------------|
|---7---------7---------3---x12---------------------------------|
|---7-x6------7-x6----------------------------------------------|x2
|---9---------9-------------------------------------------------|
|---------------------------------------------------------------|
|---------------------------------------------------------------|
[ Tab from: http://www.guitartabs.cc/tabs/s/story_of_the_year/until_the_day_i_die_tab_ver_7.html ]
Guitar 2
|---------------------------------------------------------------|
|---------------------------------------------------------------|
|---------------------------------------------------------------|
|---9------------------5----------------------------------------|
|---9--x12-------------5---x12----------------------------------|
|---7------------------3----------------------------------------|


Verse:

Guitar 1 plays the intro except every fourth measure it replaces the 10 fret
and plays the note on the 12th fret.

Guitar 2:   Palm mute
|---------------------------------------------------------------|
|---------------------------------------------------------------|
|--------------------7------------------------------------------|
|-----9------5-------7-------7----------------------------------|
|-----9------5-------5-------7----------------------------------|
|-----7------3---------------5----------------------------------|


Chorus:

Both Guitars
|---------------------------------------------------------------|
|---------------------------------------------------------------|
|---------------------------------------------------------------|
|---555-----777----------99999999-------------------------------|
|---555-----777----------99999999-------------------------------|
|---333-----555----------77777777-------------------------------|
                           ^When this is played the 1st guitar plays this down here
|-----10--------9-----------------------------------------------|
|-----7---------7-----------------------------------------------|
|-----7-x6------7-x6--------------------------------------------|
|-----9---------9-----------------------------------------------|
|---------------------------------------------------------------|
|---------------------------------------------------------------|



That's the song...If you need anymore and don't think i have it all email me at
shuskey27@hotmail.com.    Have fun playing it.  If you don't like it i dont care
so dont email me with stupid "this tab sucks" stuff.  It just waste me inbox
space.  Bye.       -Steven Huskey:  Member of UG since 2003
Comments