Story Of The Year - Until The Day I Die Chords & Tabs

 

Until The Day I Die Chords & Tabs

Story Of The Year Chords & Tabs

Version: 10 Type: Tab 0 ratings
1 star 2 stars 3 stars 4 stars 5 stars
comments

Until The Day I Die Tab

   
----------------------------------------------------------------------------
			     UNTIL THE DAY DIE - STORY OF THE YEAR
----------------------------------------------------------------------------
Tuning:d
This is my first tab it also might be pretty confusing but its easy to figure out

intro(guitar 1)dist.
P.M.............................................
e|-----------5-------------------5--------------|
B|----3---3----3----3----3---3------3---3-------|
G|--4---4--------4---------4----------4---------|
D|--------------------------------------------- |reapet?
A|--------------------------------------------- |
D|-------------------------------------------- -|
        p.m. whole thing

intro(guitar 2)clean part a
e|--2----------------------------------------------|
B|--x--3--------5----5-----------------------------|
G|--4--4-4--/6--6----6--6--------------------------|
D|--5--5-5-/-7--7----7--7--------------------------|
A|--5--5-5/--7--7----7--7--------------------------|
D|-------------------------------------------- ----|

                                      reapet part a two times then go to c
intro(guitar 2)clean cont. part b
e|----------0-----0-----------------------------|
B|----7--7--7-----7-----------------------------|
G|-7--7--7--7--7--7-----7-----------------------|
D|-9--9--9-----9--9--9--9-----------------------|
A|-9--9--------9-----9--9-----------------------|
D|----------------------------------------------|


intro(guitar 2)clean cont. part c
e|---------0-----0--------------------------------|
B|---------7-----7--------------------------------|
G|------7--7-----7-----7--------------------------|
D|-7-9--9--9--9--9--9--9--------------------------|
A|-7-9--9-----9-----9-----------------------------|
D|------------------------------------------------|

                                    reapet part a

intro(guitar 2)clean cont. part d
e|-------------0---0-------------------------------|
B|-------------10--10-----10-----------------------|
G|-------------11--11-----11-----0-----------------|
D|-7-9--9--9---9---9---9--9---9--0-----------------|
A|-7-9--9--9-----------9------9--------------------|
D|-------------------------------------------------|


intro(guitar 2)clean cont. part e
e|--------------------------------------------------|
B|-3---3--------5---5-------------------------------|
G|-4---4--------6---6--6--6-------------------------|
D|-5---5--5--7--7---7--7--7-------------------------|
A|-5---5--5--7--7---7--7--7-------------------------|
D|--------------------------------------------------|


-----------------------------------------------------------------------------


guitar 1
e|--10-10-10--10-10-10---9-9-9--9-9-9-----------------------|
B|---x--x--x---x--x--x---x-x-x--x-x-x-----------------------|
G|---7--7--7---7--7--7---7-7-7--7-7-7-----------------------|
D|----------------------------------------------------------|
A|----------------------------------------------------------|
D|----------------------------------------------------------|

                              reapet 2 times
guitar 1
e|---5--5--5---5--5--5---5-5---5-5-5-5--------------|
B|---x--x--x---x--x--x---x-x---x-x-x-x--------------|
G|---2--2--2---2--2--2---2-2---2-2-2-2--------------|
D|--------------------------------------------------|
A|--------------------------------------------------|
D|--------------------------------------------------|

guitar 1
P.M.................................................
e|-----------5----------------5----------------------|
B|----3---3----3----3--3---3-----3----3--------------|
G|--4---4--------4-------4---------4-----------------|
D|---------------------------------------------------|
A|---------------------------------------------------|
D|---------------------------------------------------|

guitar 1
P.M.................................................
e|-----------5-----------------7--------------------|
B|----3---3----3----3---5---5----5---5--------------|
G|--4---4--------4--------6--------6----------------|
D|--------------------------------------------------|
A|--------------------------------------------------|
D|--------------------------------------------------|

guitar 2
e|----------------------------------------------------|
B|--7---------7----------5----------------------------|
G|--7---------7----------6----------------------------|
D|--9---------9----------7----------------------------|
A|----------------------------------------------------|
D|----------------------------------------------------|


guitar 3&4(i think)
P.M........................................................................
e|----------------------------------------------------------------------------|
B|----------------------------------------------------------------------------|
G|----------------------------------------------------------------------------|
D|-9-9-9-9-9-9-9-9--5-5-5-5--5-5-5-5--0-0--0-0--0-0-0-0--7-7-7-7-7-7-7-7------|
A|-9-9-9-9-9-9-9-9--5-5-5-5--5-5-5-5--0-0--0-0--0-0-0-0--7-7-7-7-7-7-7-7------|
D|-9-9-9-9-9-9-9-9--5-5-5-5--5-5-5-5--0-0--0-0--0-0-0-0--7-7-7-7-7-7-7-7------|

                               REAPET GUITAR 1

guitar 3&4(i think)
P.M........................................................................
e|----------------------------------------------------------------------------|
B|----------------------------------------------------------------------------|
G|----------------------------------------------------------------------------|
D|-9-9-9-9-9-9-9-9--7-7-7-7--7-7-7-7--4-4--4-4--4-4-4-4--7-7-7-7-7-7-7-7------|
A|-9-9-9-9-9-9-9-9--5-5-5-5--5-5-5-5--0-0--0-0--0-0-0-0--7-7-7-7-7-7-7-7------|
D|-9-9-9-9-9-9-9-9--5-5-5-5--5-5-5-5--0-0--0-0--0-0-0-0--7-7-7-7-7-7-7-7------|


guitar 2 (WAH-WAH)
e|---------------------------------------------------|
B|---------------------------------------------------|
G|--------4------------------------------------------|
D|--------4-H2---------------------------------------|
A|---------------------------------------------------|
D|---------------------------------------------------|

GUITAR 3&4
e|-------------------------------------------------------|
B|-------------------------------------------------------|
G|-------------------------------------------------------|
D|----------------/-/-17-\-\-----------------------------|
A|---------------/-/--17--\-\----------------------------|
D|--------------/-/---17---\-\---------------------------|


                  REAPET GUITAR 1 INTRO

                        CHOURUS
-----------------------------------------------------------------------------

[ Tab from: http://www.guitartabs.cc/tabs/s/story_of_the_year/until_the_day_i_die_tab_ver_10.html ]
GUITAR 3&4
e|----------------------------------------------------------------------------|
B|--------------------7-7-7-7-7-7-7-7-7-7-7-7-7-7-7-7-------------------------|
G|-7-7-7-----9-9-9----7-7-7-7-7-7-7-7-7-7-7-7-7-7-7-7-------------------------|
D|-5-5-5-----9-9-9----9-9-9-9-9-9-9-9-9-9-9-9-9-9-9-9-------------------------|
A|-5-5-5-----7-7-7----9-9-9-9-9-9-9-9-9-9-9-9-9-9-9-9-------------------------|
D|-5-5-5-----7-7-7----9-9-9-9-9-9-9-9-9-9-9-9-9-9-9-9-------------------------|

GUITAR 1
e|----------------------------------------------------------------------------|
B|----------------------------------------------------------------------------|
G|--14-14-14--7-7-7-7--18-18-18--14-14-14-14--19-19-19--19-19-19B-------------|
D|---X--X--X--X-X-X-X---X--X--X---X--X--X--X---X--X--X---X--X--X--------------|
A|--12-12-12--5-5-5-5--16-16-16--12-12-12-12--17-17-17--17-17-17B-------------|
D|----------------------------------------------------------------------------|


guitar 1
e|-----------------------------------------------------------------------------|
B|-----------------------------------------------------------------------------|
G|--14-14-14-14-14-----------14-14-14-14-14------------------------------------|
D|-----------------12-11--------------------12-11------------------------------|
A|-----------------------12----------------------12----------------------------|
D|-----------------------------------------------------------------------------|


guitar 1
e|-------------------------------------------------------------------------------|
B|-------------------------------------------------------------------------------|
G|--14-14-14-14-14---------------------------------------------------------------|
D|-----------------12-11-12-14-12-11-12-11---------------------------------------|
A|-----------------------------------------12------------------------------------|
D|-------------------------------------------------------------------------------|

 verse double-time feel
---------------------------------------------------------------------------------

reapet verse one guitar 1 riff(like intro)

guitar 3
e|-----------------------------------------------------|
B|-----------------------------------------------------|
G|-----------------------------------------------------|
D|-----9-----------------------------------------------|
A|-----9-slide-----------------------------------------|
D|-----9-----------------------------------------------|


guitar 3&4
e|-------------------------------------------------------------------------------|
B|-------------------------------------------------------------------------------|
G|-------------------------------------------4-----------------6---------6-6-----|
D|-----0-0-0-0-0-0-0-0---7-7-7-7-7-7-7---4-4-4---------4-4---7-7-7-7-7-7-7-7-----|
A|-----9-9-9-9-9-9-9-9---5-5-5-5-5-5-5---5-5-5-5-5-5-5-5-5---7-7-7-7-7-7-7-7-----|
D|-----9-9-9-9-9-9-9-9---5-5-5-5-5-5-5---0-0-0-0-0-0-0-0-0---7-7-7-7-7-7-7-7-----|
       . .   . . .       .   . . .       . .   . . . .       .   . . . .


guitar 3&4
e|-------------------------------------------------------------------------------|
B|-------------------------------------------------------------------------------|
G|-------------------------------------------4-----------------6---------6-6-----|
D|-----0-0-0-0-0-0-0-0---7-7-7-7-7-7-7---4-4-4---------4-4---7-7-7-7-7-7-7-7-----|
A|-----9-9-9-9-9-9-9-9---5-5-5-5-5-5-5---5-5-5-5-5-5-5-5-5---7-7-7-7-7-7-7-7-----|
D|-----9-9-9-9-9-9-9-9---5-5-5-5-5-5-5---0-0-0-0-0-0-0-0-0---7-7-7-7-7-7-7-7-----|
       . .   . . .       .   . . .       . .   . . . .       .   . . . .


guitar 3&4
e|-------------------------------------------------------------------------------|
B|-------------------------------------------------------------------------------|
G|-------------------------------------------------------------------------------|
D|-----0-0-0-0-0-0-0-0---7-7-7-7-7-7-7---4-4-4---------4-4---7-7-7-7-7-7-7-7-----|
A|-----9-9-9-9-9-9-9-9---5-5-5-5-5-5-5---5-5-5-5-5-5-5-5-5---7-7-7-7-7-7-7-7-----|
D|-----9-9-9-9-9-9-9-9---5-5-5-5-5-5-5---0-0-0-0-0-0-0-0-0---7-7-7-7-7-7-7-7-----|
       . .   . . .       .   . . .       . .   . . . .       .   . . . .


guitar 3&4
e|-------------------------------------------------------------------------------|
B|-------------------------------------------------------------------------------|
G|-------------------------------------------------------------------------------|
D|-----7-7-7-7-7-7-7-7--7-7-7-7-7-7-7--------------------------------------------|
A|-----7-7-7-7-7-7-7-7--7-7-7-7-7-7-7--------------------------------------------|
D|-----7-7-7-7-7-7-7-7--7-7-7-7-7-7-7--------------------------------------------|
       . . . . . . . .


guitar 1
e|--10-10---9-9--5-5--5-5--5-5-5-----------------------|
B|---x--x---x-x--x-x--x-x--x-x-x-----------------------|
G|---7--7---6-6--2-2--2-2--2-2-2-----------------------|
D|-----------------------------------------------------|
A|-----------------------------------------------------|
D|-----------------------------------------------------|


guitar 1
e|-------------------------------------------------------------------------------|
B|------3--3--3----3---------3--------3----------3-----3--------2-2h3h2-----2----|
G|--4-4-4-----4--4----2-2--2----2--2------0---0----0-------2-2-----------2-------|
D|------------------------------------------0--------0---------------------------|
A|-------------------------------------------------------------------------------|
D|-------------------------------------------------------------------------------|


guitar 1
e|------------------------------------------2-2-2-2--2-2-2-2---------------------|
B|------3--3--3----3---------3--------3-----3-3-3-3--2-2-2-2---------------------|
G|--4-4-4-----4--4----2-2--2----2--2--------0-0-0-0--2-2-2-2---------------------|
D|-------------------------------------------------------------------------------|
A|-------------------------------------------------------------------------------|
D|-------------------------------------------------------------------------------|

                           chorus(quite)
-------------------------------------------------------------------------------


                                 reapet chorus naturally then do this


guitar 3&4
e|-------------------------|
B|-------------------------|
G|-------------------------|
D|-----9-9-9-9-9-9-9-pick--|
A|-----9-9-9-9-9-9-9-------|scrape]
D|-----9-9-9-9-9-9-9-------|
         . . . . . .

guitar 1
e|--10-10-10--10-10-10---9-9-9--9-9-9-----------------------|
B|---x--x--x---x--x--x---x-x-x--x-x-x-----------------------|
G|---7--7--7---7--7--7---7-7-7--7-7-7-----------------------|
D|----------------------------------------------------------|
A|----------------------------------------------------------|
D|----------------------------------------------------------|

                              reapet 2 times
guitar 1
e|---5--5--5---5--5--5---5-5---5-5-5-5--------------|
B|---x--x--x---x--x--x---x-x---x-x-x-x--------------|
G|---2--2--2---2--2--2---2-2---2-2-2-2--------------|
D|--------------------------------------------------|
A|--------------------------------------------------|
D|--------------------------------------------------|

guitar 1
e|---10-10----9--9------5-5-----|
B|---x--x-----x--x------x-x-----|
G|---7--7-----6--5------2-2-----|
D|------------------------------|
A|------------------------------|
D|------------------------------|

sp13093@yahoo.com for comments or if you think somethings wrong

enjoy
Comments