Story Of The Year - The Unheard Voice Chords & Tabs

 

The Unheard Voice Chords & Tabs

Story Of The Year Chords & Tabs

Version: 1 Type: Tab 0 ratings
1 star 2 stars 3 stars 4 stars 5 stars
comments

The Unheard Voice Tab

Story of the Year - "The Unheard Voice"
Well this is my 3rd tab... I think I got it about right
This is just the rhythm guitar, and the whole thing is in Drop D.  Enjoy!

KEY
X = kill strings
x = palm mute
~ = hold note
h = hammer on
p = pull off

Intro (0:01)
E--3~-----------------------------------------------------------------------
B--3~-----------------------------------------------------------------------
G--2~------5-5-5--x-x-x-x--5-5-5--x-x--5-5-5--x-x-x-x--5-5-5-X--------------
D----------5-5-5--x-x-x-x--5-5-5--x-x--5-5-5--x-x-x-x--5-5-5-X--------------
A----------3-3-3--x-x-x-x--3-3-3--x-x--3-3-3--x-x-x-x--3-3-3-X--------------
D---------------------------------------------------------------------------

Verse (0:11) "We both take the hardest punches....."
E----------------------------------------------------------------------------
B----------------------------------------------------------------------------
G-----------55----------Repeat 8x--------------------------------------------
D-2--2p0h2--55-55-00---------------------------------------------------------
A-2--2p0h2--33-55-00---------------------------------------------------------
D-2--2p0h2-----55-00---------------------------------------------------------

Prechorus (0:30) 
E----------------------------------------------------------------------------
B----------------------------------------------------------------------------
G-5-5-5-5-5-5-5--5-5-5-5-5-5-5--5-5-5-5-5-5-5--5-5-5-5-7-7-7-----------------
D-5-5-5-5-5-5-5--5-5-5-5-5-5-5--5-5-5-5-5-5-5--5-5-5-5-7-7-7-----------------
A-3-3-3-3-3-3-3--3-3-3-3-3-3-3--3-3-3-3-3-3-3--3-3-3-3-5-5-5-----------------
D----------------------------------------------------------------------------

Chorus (0:35) "Whoa, in the shadows of our lives...."
E----------------------------------------------------------------------------
B----------------------------------------------------------------------------
G-----------------------5-5-5-5-5-5-5-5--------------------------------------
D-----------------------5-5-5-5-5-5-5-5--------------------------------------
A-2-2-2-2-2--0-0-0-0-0--3-3-3-3-3-3-3-3--------------------------------------
D-2-2-2-2-2--0-0-0-0-0-------------------------------------------------------

E----------------------------------------------------------------------------
B----------------------------------------------------------------------------
G-----------------------5-5-5-5-5-5-5-5-x-x-x-x------------------------------
D-----------------------5-5-5-5-5-5-5-5-x-x-x-x------------------------------
A-2-2-2-2-2--0-0-0-0-0--3-3-3-3-3-3-3-3-x-x-x-x------------------------------
D-2-2-2-2-2--0-0-0-0-0-------------------------------------------------------

E----------------------------------------------------------------------------
B----------------------------------------------------------------------------
G-----------------------5-5-5-5-5-5-5-5--------------------------------------
D-----------------------5-5-5-5-5-5-5-5--------------------------------------
A-2-2-2-2-2--0-0-0-0-0--3-3-3-3-3-3-3-3--------------------------------------
D-2-2-2-2-2--0-0-0-0-0-------------------------------------------------------

E----------------------------------------------------------------------------
B----------------------------------------------------------------------------
G-----------------------5-5-5-5----------------------------------------------
D-----------------------5-5-5-5--0-0-0-0-X-----------------------------------
A-2-2-2-2-2--0-0-0-0-0--3-3-3-3--0-0-0-0-X-----------------------------------
D-2-2-2-2-2--0-0-0-0-0-----------0-0-0-0-X-----------------------------------
[ Tab from: http://www.guitartabs.cc/tabs/s/story_of_the_year/the_unheard_voice_tab.html ]
Verse 2 (0:57) Short lead guitar/bass/drum solo, then at 1:07:
E----------------------------------------------------------------------------
B----------------------------------------------------------------------------
G-----------55----------Repeat 4x--------------------------------------------
D-2--2p0h2--55-55-00---------------------------------------------------------
A-2--2p0h2--33-55-00---------------------------------------------------------
D-2--2p0h2-----55-00---------------------------------------------------------

Prechorus (1:18)
E----------------------------------------------------------------------------
B----------------------------------------------------------------------------
G-5-5-5-5-5-5-5--5-5-5-5-5-5-5--5-5-5-5-5-5-5--5-5-5-5-7-7-7-----------------
D-5-5-5-5-5-5-5--5-5-5-5-5-5-5--5-5-5-5-5-5-5--5-5-5-5-7-7-7-----------------
A-3-3-3-3-3-3-3--3-3-3-3-3-3-3--3-3-3-3-3-3-3--3-3-3-3-5-5-5-----------------
D----------------------------------------------------------------------------

Chorus (1:22)
E----------------------------------------------------------------------------
B----------------------------------------------------------------------------
G-----------------------5-5-5-5-5-5-5-5--------------------------------------
D-----------------------5-5-5-5-5-5-5-5--------------------------------------
A-2-2-2-2-2--0-0-0-0-0--3-3-3-3-3-3-3-3--------------------------------------
D-2-2-2-2-2--0-0-0-0-0-------------------------------------------------------

E----------------------------------------------------------------------------
B----------------------------------------------------------------------------
G-----------------------5-5-5-5-5-5-5-5-x-x-x-x------------------------------
D-----------------------5-5-5-5-5-5-5-5-x-x-x-x------------------------------
A-2-2-2-2-2--0-0-0-0-0--3-3-3-3-3-3-3-3-x-x-x-x------------------------------
D-2-2-2-2-2--0-0-0-0-0-------------------------------------------------------

E----------------------------------------------------------------------------
B----------------------------------------------------------------------------
G-----------------------5-5-5-5-5-5-5-5--------------------------------------
D-----------------------5-5-5-5-5-5-5-5--------------------------------------
A-2-2-2-2-2--0-0-0-0-0--3-3-3-3-3-3-3-3--------------------------------------
D-2-2-2-2-2--0-0-0-0-0-------------------------------------------------------

E----------------------------------------------------------------------------
B----------------------------------------------------------------------------
G-----------------------5-5-5-5----------------------------------------------
D-----------------------5-5-5-5--0-0-0-0-X-----------------------------------
A-2-2-2-2-2--0-0-0-0-0--3-3-3-3--0-0-0-0-X-----------------------------------
D-2-2-2-2-2--0-0-0-0-0-----------0-0-0-0-X-----------------------------------

Bridge (Some sort of lead gtr. solo)

Bridge Pt 2 (2:25) (Play at a bit faster tempo than the Verse riff)
E----------------------------------------------------------------------------
B----------------------------------------------------------------------------
G------------55----------Repeat 8x-------------------------------------------
D-2-2-2p0h2--55-55-00--------------------------------------------------------
A-2-2-2p0h2--33-55-00--------------------------------------------------------
D-2-2-2p0h2-----55-00--------------------------------------------------------

Prechorus (2:44)

Final Chorus (A cappella at first, then Chorus riff comes in)
Repeat Chorus 2x
Intro Riff 1x
Verse Riff 2x

If you have any corrections, feel free to post 'em here, or email me at DrNick311@nyc.rr.com.
Comments