Story Of The Year - Taste The Poison Chords & Tabs

 

Taste The Poison Chords & Tabs

Story Of The Year Chords & Tabs

Version: 1 Type: Tab

Taste The Poison Tab

Story Of The Year - "Taste The Poison"
In The Wake Of Determination (2005)

tabbed by : Chris
Drop-C (yeah I KNOW SOTY doest play in drop C)

intro riff :  (i didnt tab out the stumming patterns so figure it out your self)
(mainly pick the F string.)
 D|----------------------------------------------------|
 A|----------------------------------------------------|
 F|--10101010-13131313-16161616--121212-13p12p10-8--10-|
 C|--x-x-x-x--x-x-x-x--x-x-x-x---x-x-x-----------------|
 G|--8-8-8-8--11111111-14141414--101010----------------|
 C|----------------------------------------------------|

 D|-----------------------------------|
 A|-----------------------------------|
 F|--10101010-1313/1515-16161616--12~-|
 C|--x-x-x-x--x-x-x-x---x-x-x-x----x~-|
 G|--8-8-8-8--1111/1313-14141414--10~-|
 C|-----------------------------------| (let it ring)

(after singing)
 D |--------------------------------------------------|
 A |--------------------------------------------------|
 F |--------------------------------------------------|
 C |--33333-33333---------66666--------88888----------|
 G |--33333-33333--[x2]---66666--[x2]--88888--[x2]----|
 C |--33333-33333---------66666--------88888----------|

("Place your needle....")

(slide)
 D |---------|
 A |---------|
 F |---------|
 C |--3/6\5--|
 G |---------|
 C |---------| ??? not sure
(or you could play the bass part) :
 D |----------|
 A |----------|
 F |----------|
 C |----------|
 G |----------|
 C |--33--33--|
      ..  .. (palm mute)

("So run with me now...")
 D |---------------------|
 A |---------------------|
 F |---------------------|
 C |--66666--------5555--|
 G |--66666--[x3]--5555--|
 C |--66666--------5555--|

(-repeat above-)

(play this right when dan sings "you")
("...you")
 D |------------------------|
 A |------------------------|
 F |------------------------|
 C |--66-66-66-66-6--6-6-6--|
 G |--66-66-66-66-6--6-6-6--|
 C |--66-66-66-66-6--6-6-6--|


(*once again,listen to the song and figure the pattern yourself)

("And it's the same old story...")
 D |------------------------------------------------------------------|
 A |------------------------------------------------------------------|
 F |------------------------------------------------------------------|
 C |--3333---------6666--5555---------3333---------6666--5555--3~-----|
 G |--3333--[x2]---6666--5555--[x2]---3333--[x2]---6666--5555--3~-----|
 C |--3333---------6666--5555---------3333---------6666--5555--3~-----|

second guitar ends with

 D |------|
 A |------|
 F |------|
 C |--6~--|
 G |--6~--|
 C |--6~--|

[ Tab from: http://www.guitartabs.cc/tabs/s/story_of_the_year/taste_the_poison_tab.html ]
bass part after this :
("And you know the hardest...".)
 D |---------------------------------|
 A |---------------------------------|
 F |---------------------------------|
 C |--8--6h8p4--6--------------------|
 G |----------------8----------------|
 C |---------------------------------|

or you could play what the bass plays:
(end with "touches your mouth")
 D |------------------------------------|
 A |------------------------------------|
 F |------------------------------------|
 C |------------------------------------|
 G |----10p8p6h8-10p8p6h8-[x5]-10p8~----|
 C |------------------------------------|


 ("Can anyone feel...")
 D |------------------------------|
 A |------------------------------|
 F |-----------66-----------------|
 C |--\\\\333--66--666-55---------|
 G |--\\\\333--44--666-55---[x4]--|
 C |--\\\\333------666-55---------|

(then random squeals, you should be able to figure the most eloquent ones out yourself)

right after "but we've lost control" , play the same ^above^
and blend in with this note at the end before "here we go"
 D |------|
 A |------|
 F |------|
 C |--6~--|
 G |------|
 C |------|


(after "HERE WE GO!")
SOLO!!!! :
D|--131313-131313-131316-13-11-13-16-13-11-13-18-13-11-13-16-13-11-13--|
A|---------------------------------------------------------------------|
F|---------------------------------------------------------------------|
C|---------------------------------------------------------------------|
G|---------------------------------------------------------------------|
C|---------------------------------------------------------------------|

 D |--18-13-11-13-16-18~-13-16-18~-13-11-24~--|
 A |------------------------------------------|
 F |------------------------------------------|
 C |------------------------------------------|
 G |------------------------------------------|
 C |------------------------------------------|

 D |-------------------------------|
 A |-------------------------------|
 F |---------------13(har)---------|
 C |--11h13p11--11----------\\\\\--|
 G |----------11------------\\\\\--|
 C |------------------------\\\\\--|

 D |-----------------------------------------------------|
 A |-----------------------------------------------------|
 F |-----------------------------------------------------|
 C |--11h13p11----11h13p11---17h18p17--17h18p17----------|
 G |----------11---------------------18--------18--[x3]--|
 C |-----------------------------------------------------|

ending riff :
 D |-----------------------|
 A |-----------------------|
 F |-----------------------|
 C |--33333--33333---------|
 G |--33333--33333---[x4]--|
 C |--33333--33333---------|

end with :
 D |-------|
 A |--16~--|
 F |-------|
 C |-------|
 G |-------|
 C |-------| let it squeal

ENJOY, PLAY AWAY.