Story Of The Year - Take Me Back Chords & Tabs

 

Take Me Back Chords & Tabs

Story Of The Year Chords & Tabs

Version: 2 Type: Tab

Take Me Back Tab

   
Band: Story of the Year
Song: Take Me Back
Album: In the Wake of Determination
tabbed by basil yu

i've put this version in drop D tunning

intro (guitar 1)
(with delay effect)
e|---------------|x4
B|---------------|
G|---------------|
D|----8/9--------|
A|-6--6/7--9--4--|
D|-6-------9--4--|

pre chorus 
e|----------------------------|x4
B|----------------------------|
G|-----------------11---------|
D|-------88/99------x---------|
A|-6666--66/77--99--9---4444--|
D|-6666---------99------4444--|

(guitar 2) half way through pre chorus
e|---------------------------------|
B|---------------------------------|
G|-6h8-88686-----------------------|
D|-----------9p8p6-99986--11-98----|
A|-----------------------9------9--|
D|---------------------------------|

verse (both guitars)
e|-----------------------|x4
B|-----------------------|
G|-----------------------|
D|------88-99------------|
A|-6666-66-77-9999-4444--|
D|-6666-------9999-4444--|
pm .... .. .. .... ....

pre chorus (both guitars)
e|----------------------------|x4
B|----------------------------|
G|-----------------11---------|
D|-------88/99------x---------|
A|-6666--66/77--99--9---4444--|
D|-6666---------99------4444--|

chorus (guitar 1)
e|---------------------------------|x4
B|---------------------------------|
G|---------------------------------|
D|-22222222222222-444444444444444--|
A|-22222222222222-444444444444444--|
D|-22222222222222-444444444444444--|

(guitar 2)
e|--------------------------------------|x4
B|--------------------------------------|
G|----------16-15--------------16-15-11-|
D|-11-11-11-------16--11-11-11----------|
A|--------------------------------------|
D|--------------------------------------|
pm .. .. .. .. .. ..  .. .. .. .. .. ..

post chorus
(with delay effect)             (both guitars)
e|-------------------------------|-----------|
B|-------------------------------|-----------|
G|-------------------------------|-11111111--|
D|------8/9-----------------8/9--|--x-x-x-x--|
A|-6----6/7--9----4----6----6/7--|--9-9-9-9--|
D|-6---------9----4----6---------|-----------|

verse (both guitars)
e|-----------------------|x4
B|-----------------------|
G|-----------------------|
D|------88-99------------|
A|-6666-66-77-9999-4444--|
D|-6666-------9999-4444--|
pm .... .. .. .... ....

pre chorus (both guitars)
e|----------------------------|x4
B|----------------------------|
G|-----------------11---------|
D|-------88/99------x---------|
A|-6666--66/77--99--9---4444--|
D|-6666---------99------4444--|

chorus (guitar 1)
e|---------------------------------|x4
B|---------------------------------|
G|---------------------------------|
D|-22222222222222-444444444444444--|
A|-22222222222222-444444444444444--|
D|-22222222222222-444444444444444--|

(guitar 2)
e|--------------------------------------|x4
B|--------------------------------------|
G|----------16-15--------------16-15-11-|
D|-11-11-11-------16--11-11-11----------|
A|--------------------------------------|
D|--------------------------------------|

bridge (guitar 1) very fast
e|----------------------|x8
B|----------------------|
G|----------------------|
D|----------------------|
A|---6h7----------------|
D|-66---9864-9864-8984--|
pm ..   .... .... ....

(guitar 2) come in after x4 of above
e|------------------------------------------------|x4
B|------------------------------------------------|
G|------------------------------------------------|
D|---6h8p6-9p8p6-8h9p8-6----6h8p6--9p8h9-689868---|
A|--------9-----9-------9--------9-------------9--|
D|-66---------------------66----------------------|
pm ..                     ..

pre solo (guitar 1)
e|---------------------------------------------------------|
B|---------------------------------------------------------|
G|---------------------------------------------------------|
D|-2222222222222222-66666666-44444444-22222222-44444444-6~-|
A|-2222222222222222-66666666-44444444-22222222-44444444-6~-|
D|-2222222222222222-66666666-44444444-22222222-44444444-6~-|

(guitar 2)
e|--------------------------------------------------------------------|
B|--------------------------------------------------------------------|
G|-13131313131313131313131313131313-1717171717171717-1111111111111111-|
D|-x-x-x-x-x-x-x-x-x-x-x-x-x-x-x-x--x-x-x-x-x-x-x-x--x-x-x-x-x-x-x-x--|
A|-11111111111111111111111111111111-1414141414141414-9-9-9-9-9-9-9-9--|
D|--------------------------------------------------------------------|
[ Tab from: http://www.guitartabs.cc/tabs/s/story_of_the_year/take_me_back_tab_ver_2.html ]
e|--------------------------------------|
B|--------------------------------------|
G|-1313131313131313-1515151515151515----|
D|-x-x-x-x-x-x-x-x--x-x-x-x-x-x-x-x--6~-|
A|-1111111111111111-1313131313131313-6~-|
D|-----------------------------------6~-|

solo (guitar 1)
e|---------------------------------|x4
B|---------------------------------|
G|---------------------------------|
D|-22222222222222-444444444444444--|
A|-22222222222222-444444444444444--|
D|-22222222222222-444444444444444--|

(guitar 2)
e|---------------------------------------------------------------------------
B|---------------------------------------------------------------------------
G|-----------------------------------------------------------------11-13b-13b
D|--------------------------------------------------------11--11-13----------
A|-11-13-14--11-13-9--11-9-6-9-11-9/11-9--11-13-14--13-14--------------------
D|---------------------------------------------------------------------------

e|---------------------------------------------------------|
B|---------------------------------------------------------|
G|----------16--15----------16--15----9-8-----------6b-6b--|
D|-11-16-16---16---16-16-16---16--16------9-8-6-8-9--------|
A|---------------------------------------------------------|
D|---------------------------------------------------------|

e|----------------------------------------------|
B|------------------------------16---16---16----|
G|----------------------12b--16b--16b--16b--16b-|
D|-9p8p6-11p9p8-13p11p9-------------------------|
A|----------------------------------------------|
D|----------------------------------------------|

chorus (guitar 1)
e|---------------------------------------------|x4
B|---------------------------------------------|
G|------------------------------------44444444-|
D|-2222222222222222-44444444-66666666-44444444-|
A|-2222222222222222-44444444-66666666-22222222-|
D|-2222222222222222-44444444-66666666----------|

e|---------------------------------------------|x2
B|---------------------------------------------|
G|---------------------------------------------|
D|-2222222222222222-44444444-66666666-44444444-|
A|-2222222222222222-44444444-66666666-44444444-|
D|-2222222222222222-44444444-66666666-44444444-|

(guitar 2)
e|-----------------------------------------------------------------|
B|-----------------------------------------------------------------|
G|-1616161616161616-13131313-8888-44444444-4444-3333-13131313-1010-|
D|-x-x-x-x-x-x-x-x--x-x-x-x--xxxx-xxxxxxxx-xxxx-xxxx-x-x-x-x--x-x--|
A|-1414141414141414-11111111-6666-22222222-2222-1111-11111111-9-9--|
D|-----------------------------------------------------------------|

e|------------------------------------------------------|
B|------------------------------------------------------|
G|-1515151515151515-13131313-15151515-1616161616161616--|
D|-x-x-x-x-x-x-x-x--x-x-x-x--x-x-x-x-x-x-x-x-x-x-x-x-x--|
A|-1313131313131313-11111111-13131313-1414141414141414--|
D|------------------------------------------------------|

e|-------------------------------------------------------------------------|
B|-------------------------------------------------------------------------|
G|-13131313-6-8888-6666-13131313-6-8888-6666-13131313-10-16161616-10101010-|
D|-x-x-x-x--x-xxxx-xxxx-x-x-x-x--x-xxxx-xxxx-x-x-x-x--x--x-x-x-x--x-x-x-x--|
A|-11111111-4-6666-4444-11111111-4-6666-4444-11111111-9--14141414-9-9-9-9--|
D|-------------------------------------------------------------------------|

e|------------------------------------------------------------------------|
B|------------------------------------------------------------------------|
G|-13131313-15151515-1616161616161616-1818181818181818-15151515-15151515--|
D|-x-x-x-x--x-x-x-x---x-x-x-x-x-x-x---x-x-x-x-x-x-x-x--x-x-x-x--x-x-x-x---|
A|-11111111-13131313-1414141414141414-1616161616161616-13131313-13131313--|
D|------------------------------------------------------------------------|

e|--------------------------------|x8
B|--------------------------------|
G|--------------------------------|
D|-----9---8------------9---8-----|
A|-9-9---9---9-9--9-9-9---9---9-9-|
D|--------------------------------|

outro (guitar 1)
e|-----------------------------|
B|-----------------------------|
G|-----------------------------|
D|-2~-4~-6~-4~-2~-4~-6~-4~-2~~-|
A|-2~-4~-6~-4~-2~-4~-6~-4~-2~~-|
D|-2~-4~-6~-4~-2~-4~-6~-4~-2~~-|

thats all!!!!!!!!!!!!!!!!!! that took sooooo long, and most of its right...