Story Of The Year - Swallow The Knife Chords & Tabs

 

Swallow The Knife Chords & Tabs

Story Of The Year Chords & Tabs

Version: 1 Type: Tab 0 ratings
1 star 2 stars 3 stars 4 stars 5 stars
comments

Swallow The Knife Tab

Tabbed by:Ricky
Email:rickp822@yahoo.com
[ Tab from: http://www.guitartabs.cc/tabs/s/story_of_the_year/swallow_the_knife_tab.html ]
Tuning: Standard
You can figure out the strumming pattern
  Intro
e|---------------------------------------------------------------------------|
B|---------------------------------------------------------------------------|
G|---6-----------------------------------------------------------------------|    Strum several times
D|---6-----------------------------------------------------------------------|
A|---4-----------------------------------------------------------------------|
E|---------------------------------------------------------------------------|
  Verse  "so our open wounds will bleed..."
e|---------------------------------------------------------------------------|
B|---------------------------------------------------------------------------|
G|---6--------4--------6--------4--------------------------------------------|
D|---6--------4--------6--------4--------------------------------------------|
A|---4--------2--------4--------2--------------------------------------------|
E|---------------------------------------------------------------------------|
  Pre-chorus   "so swallow the knife...."
e|---------------------------------------------------------------------------|
B|---------------------------------------------------------------------------|
G|---2-----------------------------------------------------------------------|            strum several times
D|---2-----------------------------------------------------------------------|
A|---0-----------------------------------------------------------------------|
E|---------------------------------------------------------------------------|
  Chorus  "Now our hands are tied..."
e|---------------------------------------------------------------------------|
B|---------------------------------------------------------------------------|
G|---6--------9--------------------------------------------------------------|
D|---6--------9--------9-----------------------------------------------------|
A|---4--------7--------9-----------------------------------------------------|
E|---------------------7-----------------------------------------------------|
  Bridge/End of song   "words are spoken...."
e|---------------------------------------------------------------------------|
B|---------------------------------------------------------------------------|
G|---2----|-----6--------4--------2--------4---------------------------------|
D|---2----|-----6--------4--------2--------4---------------------------------|
A|---0----|-----4--------2--------0--------2---------------------------------|
E|---------------------------------------------------------------------------|
  after bridge
e|---------------------------------------------------------------------------|
B|---------------------------------------------------------------------------|
G|---222--2--------------------------------------6-6-------------------------|    x3          x4
D|---222--2------------------------------------------6-6---------------------|
A|---000--0----------4-4-4-4-4-4-------------4-4-----------------------------|
E|---------------------------------------------------------------------------|

e|---------------------------------------------------------------------------|
B|---------------------------------------------------------------------------|
G|---222--2----------444--4-----------------6-6------------------------------|    x3          x4
D|---222--2----------444--4------------------------6-6-----------------------|
A|---000--0----------222--2-------------4-4----------------------------------|
E|---------------------------------------------------------------------------|

e|---------------------------------------------------------------------------|
B|---222--2--------444444444444444444444444----------------------------------|    x4
G|---222--2--------444444444444444444444444----------------------------------|
D|---000--0--------222222222222222222222222----------------------------------|
A|---------------------------------------------------------------------------|
E|---------------------------------------------------------------------------|
Comments