Story Of The Year - Sidewalks Chords & Tabs

 

Sidewalks Chords & Tabs

Story Of The Year Chords & Tabs

Version: 7 Type: Tab 0 ratings
1 star 2 stars 3 stars 4 stars 5 stars
comments

Sidewalks Tab

Band: Story Of The Year
Song: Sidewalks
Tabbed by: Dominic P

INTRO				     LEAD IN
E|-----------0----------------|      ----------0-------------|
B|--------0---------0---------|      --------0---------------|
G|-----8----------8---8-------|  x3  -----8--------8--8--8---|
D|--------------6-------------|      --------------8--8--8---|
A|--4-------------------------|      --4----------10-10-10---|
E|----------------------------|      ------------------------|

Verse
e|--0-0-0-0-
B|--0-0-0-0-
G|--2-4-6-6-
D|--2-4-6-6-  x4
A|--0-2-4-4-
E|----------
[ Tab from: http://www.guitartabs.cc/tabs/s/story_of_the_year/sidewalks_tab_ver_7.html ]
Chorus			Post-Chorus
e|--0-0-0-0--		--0--
B|--0-0-0-0--		--0--
G|--1-2-1-4--		--2--
D|--2-2-2-4--  x2	--2--
A|--2-0-2-2--		--0--
E|--0---0----		-----
"Over the sidewalks..."

PLAY VERSE	x 1	
PLAY CHORUS     x 1

Bridge
e|--0-0-0-0--
B|--0-0-0-0--
G|--6-4-2-4--
D|--6-4-2-4--  x2
A|--4-2-0-2--
E|-----------
"All of the days..."

e|--0-0-0--		--0--
B|--0-0-0--		--0--
G|--6-4-2--		--1--	
D|--6-4-2--  x4		--2--
A|--4-2-0--		--2--
E|---------		--0--
"Away..."

PLAY CHORUS 

	    "Road....."
e|--0-0-|  --0-0-0-0--
B|--0-0-|  --0-0-0-0--
G|--1-6-|  --1-6-4-2--
D|--2-4-|  --2-4-2-2--  x2
A|--2-4-|  --2-4-2-0--
E|--0---|  --0-------
Comments