Story Of The Year - Sidewalks Chords & Tabs

 

Sidewalks Chords & Tabs

Story Of The Year Chords & Tabs

Version: 1 Type: Tab 1 rating
1 star 2 stars 3 stars 4 stars 5 stars
comments

Sidewalks Tab

-----------------------------------------------------------------------
                         Story of the Year - Sidewalks
-----------------------------------------------------------------------
                                Standard Tuning
                         Submitted by: slacker1990a
if you have any questions or comments, e-mail me at fez5563@aol.com


Intro/Outro
e|------------------
B|------------4-----
G|----------5---5---
D|----6---6-------6-  x4
A|--4---4-----------
E|------------------
[ Tab from: http://www.guitartabs.cc/tabs/s/story_of_the_year/sidewalks_tab.html ]
Verse
e|---------
B|---------
G|--2-4-6--
D|--2-4-6--  x4
A|--0-2-4--
E|---------
"The bridges are crumbled..."
"Out on the front porch..."

Chorus
e|-----------
B|-----------
G|--1-2-6-4--
D|--2-2-6-4--  x2
A|--2-0-4-2--
E|-----------
"Over the sidewalks..."

Post-Chorus
e|---------  
B|---------
G|---2-----
D|---2-----   After this repeat the intro-outro
A|---0-----
E|---------

Bridge
e|-----------
B|-----------
G|--6-4-2-4--
D|--6-4-2-4--  x2
A|--4-2-0-2--
E|-----------
"All of the days..."

e|---------
B|---------
G|--6-4-2--
D|--6-4-2--  x4
A|--4-2-0--
E|---------
"Away..."

Intro/Outro
Verse
Chorus
Post-Chorus
Intro/outro
Verse
Chorus
Post-Chorus
Bridge
Chorus x2
Intro/Outro
Comments