Story Of The Year - Page Avenue Chords & Tabs

 

Page Avenue Chords & Tabs

Story Of The Year Chords & Tabs

Version: 4 Type: Tab

Page Avenue Tab

   
----------------------------------------------------------------------------
			     PAGE AVENUE - STORY OF THE YEAR
----------------------------------------------------------------------------
Tabbed by:P
Email:O

Tuning:

 /  slide up
 \  slide down
 h  hammer-on
 p  pull-off
 ~  let ring
 +  harmonic
 x  palm mute

intro
|---------------------------------------------------------------------------|
|---------------------------------------------------------------------------|
|--0--5--7--10--0--7--9--0--5--7--10--0--7--9--0--12--10--------------------|
|---------------------------------------------------------------------------|
|---------------------------------------------------------------------------|
|---------------------------------------------------------------------------|
link
|---------------------------------------------------------------------------|
|---------------------------------------------------------------------------|
|--9-9-9-9-9-9--5-5-5-5-5-5--7-7-7-7-7-7-7-7-7-7-7-7------------------------|
|---------------------------------------------------------------------------|
|--7-7-7-7-7-7--3-3-3-3-3-3--5-5-5-5-5-5-5-5-5-5-5-5--0~--------------------|
|-----------------------------------------------------0~--------------------|

verse
|---------------------------------------------------------------------------|
|---------------------------------------------------------------------------|
|---------------------------------------------------------------------------|
|--7-7-7-7-7-7-7-7--10-10-10-10--5-5-5-5------------------------------------|
|---------------------------------------------------------------------------|
|---------------------------------------------------------------------------|
   x x x x x x x x  x  x  x  x   x x x x
[ Tab from: http://www.guitartabs.cc/tabs/s/story_of_the_year/page_avenue_tab_ver_4.html ]
|---------------------------------------------------------------------------|
|---------------------------------------------------------------------------|
|---------------------------------------------------------------------------|
|--7-7-10-7--7-7-10--7-7-10-7--10-10-12-10----------------------------------|
|---------------------------------------------------------------------------|
|---------------------------------------------------------------------------|
   x x x  x  x x x   x x x  x  x  x  x  x

chorus
|---------------------------------------------------------------------------|
|---------------------------------------------------------------------------|
|---------------------------------------------------------------------------|
|---------------------------------------------------------------------------|
|--7-7-7-7-7--10-10-10-10-10--5-5-5-5-5-5-5-5-5-5---------------------------|
|--7-7-7-7-7--10-10-10-10-10--5-5-5-5-5-5-5-5-5-5---------------------------|

middle
|---------------------------------------------------------------------------|
|---------------------------------------------------------------------------|
|--12-12-12-12-12-12-12-12-12-12-12-12-12--16-16----------------------------|
|---------------------------------------------------------------------------|
|--10-10-10-10-10-10-10-10-10-10-10-10-10--14-14----------------------------|
|---------------------------------------------------------------------------|

|---------------------------------------------------------------------------|
|---------------------------------------------------------------------------|
|-9-9-9-9-9-9-9-9-9-9-9-9-9-9-9-9--1010101010101010-12121212121212121212--7-|
|---------------------------------------------------------------------------|
|-7-7-7-7-7-7-7-7-7-7-7-7-7-7-7-7--8-8-8-8-8-8-8-8--10-10-10-10-10-10-10--5-|
|---------------------------------------------------------------------------|

bridge
|---------------------------------------------------------------------------|
|---------------------------------------------------------------------------|
|---------------------------------------------------------------------------|
|---------------------------------------------------------------------------|
|--7-7-7-7-7-7-7-7-7--10-10-10-10--5-5-5-5----------------------------------|
|--7-7-7-7-7-7-7-7-7--10-10-10-10--5-5-5-5----------------------------------|
   x x x x x x x x x  x  x  x  x   x x x x

song order
intro/link/verse/chorus/intro/verse/chorus/middle/intro/bridge/chorus/intro
============================================================================