Story Of The Year - Page Avenue Chords & Tabs

 

Page Avenue Chords & Tabs

Story Of The Year Chords & Tabs

Version: 3 Type: Tab 0 ratings
1 star 2 stars 3 stars 4 stars 5 stars
comments

Page Avenue Tab

   
-------------------------------------------------------------------------------
			     Page Avenue- Story of the Year
-------------------------------------------------------------------------------
Tabbed by: Mike Kennedy
Email: mk22690@earthlink.net

Tuning: Drop D (DADGBe)


-----------------------------------------------------------------------------
*If you plan on playing this song alone, 
mix the riffs in a way that you feel will
sound good AND that you can sing to*

**If you plan on a duet with another person,
I HIGHLY suggest the 2nd guitarist to sing,
as the first guitar part is seemingly
difficult to sing along with**
-----------------------------------------------------------------------------

Guitar 1: Ryan Phillips
Guitar 2: Phillip Sneed

____________________
LEGEND              |
_ =clean            |
* =Light Distortion |
____________________|


RIFF A _
e|---------------------------------------------------------------------------|
B|---------------0-----------------------------------------------------------|
G|-----------------0----------------------0----0-----------------------------|
D|---------10--------10----------10----10---10---10--------------------------|
A|-0h10h12----12---------0h10h12----12---------------------------------------|
D|---------------------------------------------------------------------------|
PM         ............          ..................



RIFF B *
e|---------------------------------------------------------------------------|
B|---------------------------------------------------------------------------|
G|---------------------------------------------------------------------------|
D|-7--7--7--7--7--7--7--0--3--3--3--3--3--3--3--0----------------------------|
A|-7--7--7--7--7--7--7--0--3--3--3--3--3--3--3--0----------------------------|
D|-7--7--7--7--7--7--7--0--3--3--3--3--3--3--3--0----------------------------|

e|---------------------------------------------------------------------------|
B|---------------------------------------------------------------------------|
G|---------------------------------------------------------------------------|
D|-7--7--7--7--7--7--7--7--7--7--7--7--7--7--7--9~---------X~~~~Pick Slide~~~|
A|-5--5--5--5--5--5--5--5--5--5--5--5--5--5--5--7~---------X~~~~Pick Slide~~~|
D|-5--5--5--5--5--5--5--5--5--5--5--5--5--5--5--7~---------X~~~~Pick Slide~~~|



RIFF C *
e|-------------------------3--3--3--3--3--3--3--3----------------------------|
B|-1--1--1--1--1--1--1--1--1--1--1--1--0--0--0--0----------------------------|
G|-2--2--2--2--2--2--2--2--------------0--0--0--0----------------------------|
D|---------------------------------------------------------------------------|
A|---------------------------------------------------------------------------|
D|---------------------------------------------------------------------------|
PM ..............................................



RIFF D *
e|---------------------------------------------------------------------------|
B|---------------------------------------------------------------------------|
G|-4--5--4----4--5--4-----4--5--4-----4--5--4--------------------------------|
D|----------5----------5-----------5-----------5-----------------------------|
A|---------------------------------------------------------------------------|
D|---------------------------------------------------------------------------|
PM .............................................


RIFF E *
e|---------------------------------------------------------------------------|
B|-------------------------0-------------------------------------------------|
G|-4--5--4--5--4--5--4--5--0-------------------------------------------------|
D|---------------------------------------------------------------------------|
A|---------------------------------------------------------------------------|
D|---------------------------------------------------------------------------|
LET RING                   -|


RIFF F *
e|-3--3--3--3--3--3--3--3----------------------------------------------------|
B|-1--0--1--0--1--0--1--0--0-------------------------------------------------|
G|-0--0--0--0--0--0--0--0--0-------------------------------------------------|
D|---------------------------------------------------------------------------|
A|---------------------------------------------------------------------------|
D|---------------------------------------------------------------------------|
LET RING                   -|



RIFF G *
e|---------------------------------------------------------------------------|
B|----------1--1--1--1--1----------------------------------------------------|
G|-2--2--2--2--2--2--2--2-----------5--5--5--5--5----------------------------|
D|-2--2--2--2--2--2--2--2--3--3--3--3--3--3--3--3----------------------------|
A|-0--0--0--0--0--0--0--0--3--3--3--3--3--3--3--3----------------------------|
D|-------------------------3--3--3--3--3--3--3--3----------------------------|


e|---------------------------------------------------------------------------|
B|---------------------------------------------------------------------------|
G|-7--7--7--7--7--7--7--7--7--7--7--7--7--7--7--7----------------------------|
D|-5--5--5--5--5--5--5--5--5--5--5--5--5--5--5--5----------------------------|
A|-5--5--5--5--5--5--5--5--5--5--5--5--5--5--5--5----------------------------|
D|-5--5--5--5--5--5--5--5--5--5--5--5--5--5--5--5----------------------------|



RIFF H *
e|---------------------------------------------------------------------------|
B|---------------------------------------------------------------------------|
G|----------9--9--9--9--9-----------5--5--5--5--5----------------------------|
D|-7--7--7--7--7--7--7--7--3--3--3--3--3--3--3--3----------------------------|
A|-7--7--7--7--7--7--7--7--3--3--3--3--3--3--3--3----------------------------|
D|-7--7--7--7--7--7--7--7--3--3--3--3--3--3--3--3----------------------------|

e|---------------------------------------------------------------------------|
B|---------------------------------------------------------------------------|
G|-7--7--7--7--7--7--7--7--7--7--7--7--7--7--7--7----------------------------|
D|-5--5--5--5--5--5--5--5--5--5--5--5--5--5--5--5----------------------------|
A|-5--5--5--5--5--5--5--5--5--5--5--5--5--5--5--5----------------------------|
D|-5--5--5--5--5--5--5--5--5--5--5--5--5--5--5--5----------------------------|


[ Tab from: http://www.guitartabs.cc/tabs/s/story_of_the_year/page_avenue_tab_ver_3.html ]
RIFF I *
e|---------------------------------------------------------------------------|
B|---------------------------------------------------------------------------|
G|-17--17--17--17--17--17--17--17--17--17--17--17--16--16--16----------------|
D|--x---x---x---x---x---x---x---x---x---x---x---x---x---x---x----------------|
A|-15--15--15--15--15--15--15--15--15--15--15--15--14--14--14----------------|
D|---------------------------------------------------------------------------|

e|---------------------------------------------------------------------------|
B|---------------------------------------------------------------------------|
G|-9--9--9--9--9--9--9--9--9--9--9--9--9--9--9--9----------------------------|
D|-x--x--x--x--x--x--x--x--x--x--x--x--x--x--x--x----------------------------|
A|-7--7--7--7--7--7--7--7--7--7--7--7--7--7--7--7----------------------------|
D|---------------------------------------------------------------------------|

e|---------------------------------------------------------------------------|
B|---------------------------------------------------------------------------|
G|-10--10--10--10--10--10--10--10-/12--12--12--12--12--12--12--12\-7---------|
D|--x---x---x---x---x---x---x---x-/-x---x---x---x---x---x---x---x\-x---------|
A|--8---8---8---8---8---8---8---8-/10--10--10--10--10--10--10--10\-5---------|
D|---------------------------------------------------------------------------|



RIFF J *
e|---------------------------------------------------------------------------|
B|---------------------------------------------------------------------------|
G|---------------------------------------------------------------------------|
D|-3--3--3--3--3--3--3--3--3--3--3--3--5--5--5--5----------------------------|
A|-3--3--3--3--3--3--3--3--3--3--3--3--5--5--5--5----------------------------|
D|-3--3--3--3--3--3--3--3--3--3--3--3--5--5--5--5----------------------------|

e|---------------------------------------------------------------------------|
B|---------------------------------------------------------------------------|
G|---------------------------------------------------------------------------|
D|-7--7--7--7--7--7--7--7--7--7--7--7--7--7--7--7----------------------------|
A|-7--7--7--7--7--7--7--7--7--7--7--7--7--7--7--7----------------------------|
D|-7--7--7--7--7--7--7--7--7--7--7--7--7--7--7--7----------------------------|

e|---------------------------------------------------------------------------|
B|---------------------------------------------------------------------------|
G|---------------------------------------------------------------------------|
D|-8--8--8--8--8--8--8--8--10--10--10--10--10--10--10--10--0-----------------|
A|-8--8--8--8--8--8--8--8--10--10--10--10--10--10--10--10--0-----------------|
D|-8--8--8--8--8--8--8--8--10--10--10--10--10--10--10--10--0-----------------|
LET RING                                                   -|


RIFF K _ 
e|---------------------------------------------------------------------------|
B|---------------------------------0-----0-----------------------------------|
G|------------------------------------0-----0--------------------------------|
D|---------10------10------10------------------10------10--------------------|
A|-12--12------12------12------12------------------12------12----------------|
D|---------------------------------------------------------------------------|
PM ......
LET RING   --------------------------------------------------|



RIFF L _
e|-0--0--0--0--0--0--0--0--0--0--0--0--0--0--0--0----------------------------|
B|-1--1--1--1--1--1--1--1--0--0--0--0--0--0--0--0----------------------------|
G|-2--2--2--2--2--2--2--2--2--2--2--2--2--2--2--2----------------------------|
D|-2--2--2--2--2--2--2--2--2--2--2--2--2--2--2--2----------------------------|
A|-0--0--0--0--0--0--0--0--0--0--0--0--0--0--0--0----------------------------|
D|-0--0--0--0--0--0--0--0--0--0--0--0--0--0--0--0----------------------------|
LET RING                   ----------------------|



RIFF M *
e|---------------------------------------------------------------------------|
B|---------------------------------------------------------------------------|
G|---------------------------------------------------------------------------|
D|-7--7--7--7--7--7--7--7--5--5--5--5--5--5--5--5----------------------------|
A|-7--7--7--7--7--7--7--7--5--5--5--5--5--5--5--5----------------------------|
D|-7--7--7--7--7--7--7--7--5--5--5--5--5--5--5--5----------------------------|
PM ..............................................



RIFF N
e|---------------------------------------------------------------------------|
B|-------------------------------------------------------------------------0-|
G|-------------------------------------------------------------------------0-|
D|-3--3--3--3--3--3--3--3--3--3--3--3--3--3--3--0--5--5--5--5--5--5--5--5----|
A|-3--3--3--3--3--3--3--3--3--3--3--3--3--3--3--0--5--5--5--5--5--5--5--5----|
D|-3--3--3--3--3--3--3--3--3--3--3--3--3--3--3--0--5--5--5--5--5--5--5--5----|
PM ......................
LET RING                                                                   -|


------------------------------------------------------------------------------

				  ---LAYOUT---


		INTRO SECTION


INTRO
Guitar 1: Riff A (x2)

PREVERSE
Both: Riff B (x1)


		VERSE 1 SECTION


VERSE 1 (1st Part) {I Still Recall...}
Both: Riff C (x4)

VERSE 1 (2nd Part) {Nothing Mattered More...}
Guitar 1: Riff D (x4)
Guitar 2: Riff C (x4)

PRECHORUS
Guitar 1: Riff E (x1)
Guitar 2: Riff F (x1)


		CHORUS SECTION


CHORUS {I Had Something Better...}
Guitar 1: Riff H (x4)
Guitar 2: Riff G (x4)

POSTCHORUS
Guitar 1: Riff A (x1)


		VERSE 2 SECTION


VERSE 2 {Bring Back The Days...}
Guitar 1: Riff K (x4)
Guitar 2: Riff C (x4)

PRECHORUS
Both: OPEN B and G Strings ONCE (LET RING)


		CHORUS (ONCE)


		BRIDGE SECTION


BRIDGE (Part 1) {I FALL APART...}
Both: Riff J (x1)

BRIDGE (Part 2) {I FALL APART...}
Guitar 1: Riff I (x1)
Guitar 2: Riff J (x1)


		INTERLUDE SECTION


INTERLUDE
Guitar 1: Riff A (x6)
Guitar 2: Riff L (x6)

		VERSE SECTION


VERSE 3 {And I Still Recall...}
Guitar 1: Riff A (x5)
Guitar 2: Riff M (x3) Riff N (x1)


		CHORUS (ONE AND A HALF TIMES) 
		[PLAY CHORUS RIFFS TIMES EACH]


		BRIDGE (PART 1)


		OUTRO SECTION


OUTRO
Guitar 1: Riff A (x4)
Guitar 2: Riff L (x4)

END

~~~~~~~~~~~~~~~~~~~~~~~~~~~~~~~~~~~~~~~~~~~~~~~~~~~~~~~~~~~~~~~~~~~~~~~~~~~~~~
Comments