Story Of The Year - Page Avenue Chords & Tabs

 

Page Avenue Chords & Tabs

Story Of The Year Chords & Tabs

Version: 2 Type: Tab 0 ratings
1 star 2 stars 3 stars 4 stars 5 stars
comments

Page Avenue Tab

   
Any and all comments are welcome.
Should be about 90% correct. 10% deduction for strumming. My first tab so be gentle. enjoy

you guys have to figure the strumming for the whole thing. cause im lazy.
     Intro
E|-------------------------------------------------------reapeat-as-many--||
B|----------1------0-------------1-----0-----0--1--------times-as-needed--||
G|-------2-----2--------------2-----2-----2-------------------------------||
D|--0h2-----------------0h2-----------------------------------------------||
A|------------------------------------------------------------------------||
E|------------------------------------------------------------------------||


E|--5-----1-----3-----5---------------------------------------------------||
B|--5-----1-----3-----5---------------------------------------------------||
G|--5-----2-----4-----5---------------------------------------------------||
D|--7-----3-----5-----7---------------------------------------------------||
A|--7-----3-----5-----7---------------------------------------------------||
E|--5-----1-----3-----5---------------------------------------------------||
   Am     F     G     Am

pickslide
Verse
E|------------------------------------------------------------------------||
B|------------------------------------------------------------------------||
G|--9----12----11------------x4-------------------------------------------||
D|--7----10----9----12----------------------------------------------------||
A|------------------10----------------------------------------------------||
E|------------------------------------------------------------------------||


E|------------------------------------------------------------------------||
B|------------------------------------------------------------------------||
G|---11-----------------------x2-then-----11--------9---10---9------------||
D|---9-----------9---10---9---------------9-----10------------------------||
A|----------10------------------------------------------------------------||
E|------------------------------------------------------------------------||

continued
E|------------------------------------------------------------------------||
B|------------------------------------------------------------------------||
G|--------9---10---9----------9---10---9------10--9--10--9--10--9--10-----||
D|---10------------------10-----------------------------------------------||
A|------------------------------------------------------------------------||
E|------------------------------------------------------------------------||

chorus
E|--5-----1-----3---------------------------------------------------------||
B|--5-----1-----3------------x4-------------------------------------------||
G|--5-----2-----4---------------------------------------------------------||
D|--7-----3-----5---------------------------------------------------------||
A|--7-----3-----5---------------------------------------------------------||
E|--5-----1-----3---------------------------------------------------------||
   Am     F     G        

Verse
E|------------------------------------------------------------------------||
B|------------------------------------------------------------------------||
G|--9----12----11------------x4-------------------------------------------||
D|--7----10----9----12----------------------------------------------------||
A|------------------10----------------------------------------------------||
E|------------------------------------------------------------------------||


E|------------------------------------------------------------------------||
B|------------------------------------------------------------------------||
G|---11-----------------------x2-then-----11--------9---10---9------------||
D|---9-----------9---10---9---------------9-----10------------------------||
A|----------10------------------------------------------------------------||
E|------------------------------------------------------------------------||
[ Tab from: http://www.guitartabs.cc/tabs/s/story_of_the_year/page_avenue_tab_ver_2.html ]
continued
E|------------------------------------------------------------------------||
B|------------------------------------------------------------------------||
G|--------9---10---9----------9---10---9------10--9--10--9--10--9--10-----||
D|---10------------------10-----------------------------------------------||
A|------------------------------------------------------------------------||
E|------------------------------------------------------------------------||

Chorus
E|--5-----1-----3---------------------------------------------------------||
B|--5-----1-----3--------------x4-----------------------------------------||
G|--5-----2-----4---------------------------------------------------------||
D|--7-----3-----5---------------------------------------------------------||
A|--7-----3-----5---------------------------------------------------------||
E|--5-----1-----3---------------------------------------------------------||
   Am     F     G     

Bridge
E|--1-----3-----5-----------1-----3-----5---------------------------------||
B|--1-----3-----5-----------3-----5-----6--------x2-----------------------||
G|--2-----4-----5-----------3-----5-----7---------------------------------||
D|--3-----5-----7-----------3-----5-----7---------------------------------||
A|--3-----5-----7-----------1-----3-----5---------------------------------||
E|--1-----3-----5-----------1-----3-----5---------------------------------||
    F     G     Am         A#     C     Dm
Then Intro
E|------------------------------------------------------reapeat-as-many---||
B|----------1------0-------------1-----0-----0--1-------times-as-needed---||
G|-------2-----2--------------2-----2-----2-------------------------------||
D|--0h2-----------------0h2-----------------------------------------------||
A|------------------------------------------------------------------------||
E|------------------------------------------------------------------------||

Verse
E|------------------------------------------------------------------------||
B|------------------------------------------------------------------------||
G|--9----12----11------------x3-------------------------------------------||
D|--7----10----9----12----------------------------------------------------||
A|------------------10----------------------------------------------------||
E|------------------------------------------------------------------------||


E|------------------------------------------------------------------------||
B|------------------------------------------------------------------------||
G|---11-----------------------x1then-----11--------9---10---9-------------||
D|---9-----------9---10---9---------------9-----10------------------------||
A|----------10------------------------------------------------------------||
E|------------------------------------------------------------------------||

continued
E|------------------------------------------------------------------------||
B|------------------------------------------------------------------------||
G|--------9---10---9----------9---10---9------10--9--10--9--10--9--10-----||
D|---10------------------10-----------------------------------------------||
A|------------------------------------------------------------------------||
E|------------------------------------------------------------------------||

Chorus
E|--5-----1-----3---------------------------------------------------------||
B|--5-----1-----3--------------x6-----------------------------------------||
G|--5-----2-----4---------------------------------------------------------||
D|--7-----3-----5---------------------------------------------------------||
A|--7-----3-----5---------------------------------------------------------||
E|--5-----1-----3---------------------------------------------------------||
   Am     F     G     

Bridge
E|--1-----3-----5-----------1-----3-----5---------------------------------||
B|--1-----3-----5-----------3-----5-----6--------x2-----------------------||
G|--2-----4-----5-----------3-----5-----7---------------------------------||
D|--3-----5-----7-----------3-----5-----7---------------------------------||
A|--3-----5-----7-----------1-----3-----5---------------------------------||
E|--1-----3-----5-----------1-----3-----5---------------------------------||
    F     G     Am         A#     C     Dm

Then End on the Intro
E|------------------------------------------------------reapeat-as-many---||
B|----------1------0-------------1-----0-----0--1------times-as-needed----||
G|-------2-----2--------------2-----2-----2-------------------------------||
D|--0h2-----------------0h2-----------------------------------------------||
A|------------------------------------------------------------------------||
E|------------------------------------------------------------------------||
Comments