Story Of The Year - Page Avenue Chords & Tabs

 

Page Avenue Chords & Tabs

Story Of The Year Chords & Tabs

Version: 1 Type: Bass Tab 0 ratings
1 star 2 stars 3 stars 4 stars 5 stars
comments

Page Avenue Bass Tab

   
Artist:Story of the Year
Song:Page Avenue
Tabbed by:ibreakey221


Intro (0:08)
G-----------------------|
D-----------------------|
A-----------------------|
E-5(x8)-1(x8)-3(x16)-5~-|

Verse (0:30)
G-----------------------------------|
D-----------------------------------|  x3
A-----------------------------------|
E-5-5-5-5-5-5-5-5-3-3-3-3-3-3-3-3---|

G-------------------------------------------------|
D-------------------------------------------------|
A-------------------------------------------------|
E-1-1-1-1-1-1-1-1-1-1-1-1-1-1-1-3-3-3-3-3-3-3-3-3-|

Chorus (0:44)
G--------------------]-------------------------|
D--------------------]-------------------------|
A--------------------]-------------------------|
E-5(x8)-1(x8)-3(x16)-]5(x8)-1(x8)-3(x8)/1------|5(x8)

G--------------------]-----------------------------------|
D--------------------]-----------------------------------|
A--------------------]---------3-------------------------|
E-5(x8)-1(x8)-3(x16)-]5-0-5-0-1-1-1-3(x8)/15(x8)-11\-5-5-|

Verse (1:08)
G-----------------------------------|
D-----------------------------------|  x3
A-----------------------------------|
E-5-5-5-5-5-5-5-5-3-3-3-3-3-3-3-3---|

G-------------------------------|
D------------------------0------|
A-------------------------3-2-3-|
E-1-1-1-1-1-1-1-1-3-3-3-3-------|

G-----------------------------------|
D-----------------------------------|  x3
A-----------------------------------|
E-5-5-5-5-5-5-5-5-3-3-3-3-3-3-3-3---|

G--------------------------------|
D--------------------------------|
A--------------------------------|
E-15-15-15-15-15-15-15-15-15-11\-|

Chorus (1:29)
G--------------------]-----------------------------|
D--------------------]-----------------------------|
A--------------------]-----------------------------|
E-5(x8)-1(x8)-3(x16)-]5(x8)-1(x8)-3(x8)/15(x4)-11\-|

G----------------------------------------------|
D----------------------------------------------|
A-0-0-2-2-3----2-2-3----2-2-3--5-5-3-3-2-2-----|
E-----------1-1------3-3-------------------3-3-|
[ Tab from: http://www.guitartabs.cc/tabs/s/story_of_the_year/page_avenue_btab.html ]
G-----------------------------------|
D-----------------------------------|
A-0-0-2-2-3----2-2-3----2-2-3-1-----|0(x8)
E-----------1-1------3-3------------|

Bridge (1:51)
G----------------------------------------|
D----------------------------------------|  x2
A-------------------1(x6)-3(x6)----------|
E-1(x14)-3-3-5(x16)-------------0(x16----|

Verse (2:29)
G--------------------------------|
D--------------------------------|
A------------------------2-2-3-3-|
E-5-5-5-5-5-5-5-5-3-3-3-3--------|

G---------------------------------|
D---------------------------------|
A---------------------------------|
E-5-5-5-5-5-5-5-5-3-3-3-3-3-3-3-3-|

G--------------------------------|
D--------------------------------|
A------------------------2-2-3-3-|
E-5-5-5-5-5-5-5-5-3-3-3-3--------|

G-------------------------------------------------|
D-------------------------------------------------|
A-------------------------------------------------|
E-1-1-1-1-1-1-1-1-1-1-1-1-1-1-1-3-3-3-3-3-3-3-3-3-|

Chorus (2:42)
G-----------------------------]----------------------------------|
D-----------------------------]----------------------------------|
A----------------5-5-----5-5--]------------------3-3-2-2-0-0-2-2-|
E-5(x8)-1(x8)-3-3-3-3-3-3-3-3-]5(x8)-1(x8)-3(x8)-----------------|

G----------------------------------------------|
D----------------------------------------------|
A-0-0-2-2-3----2-2-3----2-2-3--5-5-3-3-2-2-----|
E-----------1-1------3-3-------------------3-3-|

G------------------------------------|
D------------------------------------|
A----------3-----5----5-5-3-3-2-2----|
E-5-0-5-0-1-1-1-3-3-3------------3-3-|

G--------------------]--------------------|
D--------------------]--------------------|
A--------------------]--------------------|
E-5(x8)-1(x8)-3(x16)-]-5(x8)-1(x8)-3(x16--|

End of Chorus (3:15)
G--------------------------------------|
D--------------------------------------|
A-------------------1(x6)-3(x6)--------|
E-1(x14)-3-3-5(x16)-------------0~~~~~-|

Awesome Outro (3:28)
G----------------------------]--------------------------------|
D----------------------------]--------------------------------|
A------3-0-2-0-------3-0-2-0-]------3-0-2-0-------3-0-2-0-----|
E-3-5-5-------3-3-3-3---3-3-3]-3-5-5-------3-3-3-3---3-3-3-5\-|
Comments