Stooges - Death Trip Chords & Tabs

 

Death Trip Chords & Tabs

Stooges Chords & Tabs

Version: 1 Type: Tab 0 ratings
1 star 2 stars 3 stars 4 stars 5 stars
comments

Death Trip Tab

#----------------------------------PLEASE NOTE---------------------------------#
#This file is the author's own work and represents their interpretation of the #
#song. You may only use this file for private study, scholarship, or research. #
#------------------------------------------------------------------------------#

From:   Deni Durousseau [i8yrmom@hotmail.com]
Sent:   Friday, December 19, 1997 2:39 PM

TAB: Death Trip by The Stooges from the album Raw Power
Tabbed by Deni Durousseau (i8yrmom@hotmail.com)

Intro:
|-5-----------4--------|-5----4--4--4--4----|-5-----------4----|
|-5-----------5--------|-5----5--5--5--5----|-5-----------5----|
|----------------------|--------------------|------------------|
|----6--6--6-----------|--------------------|----6--6--6-------|
|----------------------|--------------------|------------------|
|----------------------|--------------------|------------------|

                            Verse:
                         Riff A -------------------------------------
|-----------------------|---------------------|----------------------|
|-3----3----3-----------|-2----2--3---2--3--2-|-3----2----2--2--3--2-|
|-2----2----2-----------|-2----2--2---2--2--2-|-2----2----2--2--2--2-|
|-0----0----0---0--2----|-2----2--4---2--4--2-|-4----2----2--2--4--2-|
|---------------------4-|-0----0--0---0--0--0-|-0----0----0--0--0--0-|
|-----------------------|---------------------|----------------------|

[ Tab from: http://www.guitartabs.cc/tabs/s/stooges/death_trip_tab.html ]
------------------------------------------------|
|-----------------------|-----------------------|
|-------------1--0------|-------------1--0----0-|
|-0--0--0--0--0--0----0-|-0--0--0--0--0--0----0-|
|-0--0--2--0--2--0----0-|-0--0--2--0--2--0----0-|
|-----------------------|-----------------------|
|-3--3--3--3--3--3----3-|-3--3--3--3--3--3------|
P.M.--------|       P.M.------------|

Play Riff A about 50 - 60 times with very little variation and then:

Outro:

|-----------------------|-----------------------|-5-----------4--------|
|-2---------------------|-(2)-------------------|-5-----------5--------|
|-2---------------------|-(2)-------------------|----------------------|
|-2---------------------|-(2)-------------------|----6--6--6-----------|
|-0---------------------|-(0)-------------------|----------------------|
|-----------------------|-----------------------|----------------------|

|-5----4--4--4--4-------|-5-----------4---------|-4---------------------|
|-5----5--5--5--5-------|-5-----------5---------|-5----3----3-----------|
|-----------------------|-----------------------|-4----2----2-----------|
|-----------------------|----6--6--6------------|------0----0---0--2----|
|-----------------------|-----------------------|---------------------4-|
|-----------------------|-----------------------|-----------------------|

|-----------------------|
|-2---------------------|
|-2---------------------|
|-2---------------------|
|-0---------------------|
|-----------------------|


Later,

Deni Durousseau


______________________________________________________
Get Your Private, Free Email at http://www.hotmail.com
Comments