Stonefree - Some Call It Funk Chords & Tabs

 

Some Call It Funk Chords & Tabs

Stonefree Chords & Tabs

Version: 1 Type: Tab 0 ratings
1 star 2 stars 3 stars 4 stars 5 stars
comments

Some Call It Funk Tab

   
Some Call It Funk
By Stone Free

This song was the group "Stone Free"'s first ever major song, and was performed at their debutant
gig at Sittingbourne. It was first realised by the band with the aid of Terry Seager, who helped
with the arrangements. Anyway, I thought I'd tab this song for you to show what a great song it
is. Its played with very mild overdrive, and with a funky, yet temperatly quick rhythm pattern.
I've transcribed the solo as well, note the change in key during this, as it happens twice.
If you have any queries about this song, or STONE FREE as a band, email me at



Intro

  G                      G
E|----------------------|-------------------------|
B|----------------------|-------------------------|
G|----------------------|--------------3-5^7/5-3--|
D|----5-3-5-3-5-3-5-3---|----5-3-5-3-5----------5-|
A|-------------------5--|-------------------------|
E|-3------------------6-|-3-----------------------|

Main Verse (Repeat Twice)
[ Tab from: http://www.guitartabs.cc/tabs/s/stonefree/some_call_it_funk_tab.html ]
  G                              G
E|-X--X--X--X--3--X-------------|-X--X--X--X--3--X--333333-|
B|-3--3--3--X--5--X-------------|-3--3--3--X--5--X--333333-|
G|-4--4--4--X--5--X--3-5^7/5-3--|-4--4--4--X--5--X--333333-|
D|-5--5--5--X--5--X-----------5-|-5--5--5--X--3--X--333333-|
A|-5--5--5--X--3--X-------------|-5--5--5--X--3--X--333333-|
E|-3--3--3--X--3--X-------------|-3--3--3--X--5--X--XXXXXX-|

Mid Section A


E|-----------------------------------------------------------------------------------------------|
B|-----------------------------------------------------------------------------------------------|
G|-----------------------------------------------------------------------------------------------|
D|-----------------------------------------------------------------------------------------------|
A|-----------------------------------------------------------------------------------------------|
E|-3--3-3-5--3-3---3-4-3-5-3-6-3-3--3-3-5--3-3---3-4-3-5-3-6-3-3--3-3-5--3-3---3-4-3-5-3-6-3-6-6-|

Main Verse (Repeat Twice)
Comments