Stonefree - Sayang Chords & Tabs

 

Sayang Chords & Tabs

Stonefree Chords & Tabs

Version: 1 Type: Tab 0 ratings
1 star 2 stars 3 stars 4 stars 5 stars
comments

Sayang Tab

   
Bb Maj-scale

Intro:
E-----------|
B-----------|
G-----------|
D---8-------|
A-6---6-5---| (2x)
E---------6-|

Verse 2:
E---------------------------------------------------|
B---------------------------------------------------|
G-----5-----------5-7-5---5-------------------------|
D-7-8---7-8---7-8-------8---8-7-8-7-5-7-5---5-------|
A-----------------------------------------8---8-6-5-|
E---------------------------------------------------|
[ Tab from: http://www.guitartabs.cc/tabs/s/stonefree/sayang_tab.html ]
E-------5-6--5-6-8--6-8-10--8-10-11--10-11-10-8----------|
B-8-6-8-----------------------------------------11-10-11-|
G--------------------------------------------------------|
D--------------------------------------------------------|
A--------------------------------------------------------|
E--------------------------------------------------------|


Solo:
E------------------------------------------------------------|
B------------------------------------------------------------|
G-/5-5-5s8-8-8s12-12-8-3-3--5s8-8s12-13-12-13-13-12-12-8-8---| /= slide to
D------------------------------------------------------------| s= slide to
A------------------------------------------------------------|
E------------------------------------------------------------|

E---------------------------------|
B---------------------------------|
G-2-3-5-2-2---/12-15-15--13-13-13-|
D---------------------------------|
A---------------------------------|
E---------------------------------|
Comments